  0
SECTION
  2
HEADER
  9
$ACADVER
  1
AC1015
  9
$ACADMAINTVER
 70
     6
  9
$DWGCODEPAGE
  3
ANSI_1250
  9
$INSBASE
 10
0.0
 20
0.0
 30
0.0
  9
$EXTMIN
 10
5649.0187553361
 20
3908.9852838407
 30
0.0
  9
$EXTMAX
 10
7786.2260459508
 20
5622.4490113816
 30
0.0
  9
$LIMMIN
 10
0.0
 20
0.0
  9
$LIMMAX
 10
420.0
 20
297.0
  9
$ORTHOMODE
 70
     0
  9
$REGENMODE
 70
     1
  9
$FILLMODE
 70
     1
  9
$QTEXTMODE
 70
     0
  9
$MIRRTEXT
 70
     1
  9
$LTSCALE
 40
1.0
  9
$ATTMODE
 70
     1
  9
$TEXTSIZE
 40
3.5
  9
$TRACEWID
 40
1.0
  9
$TEXTSTYLE
  7
Standard
  9
$CLAYER
  8
0
  9
$CELTYPE
  6
ByLayer
  9
$CECOLOR
 62
   256
  9
$CELTSCALE
 40
1.0
  9
$DISPSILH
 70
     0
  9
$DIMSCALE
 40
1.0
  9
$DIMASZ
 40
3.302
  9
$DIMEXO
 40
0.0
  9
$DIMDLI
 40
3.75
  9
$DIMRND
 40
0.0
  9
$DIMDLE
 40
0.0
  9
$DIMEXE
 40
1.0
  9
$DIMTP
 40
0.0
  9
$DIMTM
 40
0.0
  9
$DIMTXT
 40
3.5
  9
$DIMCEN
 40
2.5
  9
$DIMTSZ
 40
0.0
  9
$DIMTOL
 70
     0
  9
$DIMLIM
 70
     0
  9
$DIMTIH
 70
     1
  9
$DIMTOH
 70
     1
  9
$DIMSE1
 70
     0
  9
$DIMSE2
 70
     0
  9
$DIMTAD
 70
     1
  9
$DIMZIN
 70
     0
  9
$DIMBLK
  1

  9
$DIMASO
 70
     1
  9
$DIMSHO
 70
     1
  9
$DIMPOST
  1

  9
$DIMAPOST
  1

  9
$DIMALT
 70
     0
  9
$DIMALTD
 70
     3
  9
$DIMALTF
 40
0.0393700787
  9
$DIMLFAC
 40
1.0
  9
$DIMTOFL
 70
     1
  9
$DIMTVP
 40
0.0
  9
$DIMTIX
 70
     0
  9
$DIMSOXD
 70
     0
  9
$DIMSAH
 70
     0
  9
$DIMBLK1
  1

  9
$DIMBLK2
  1

  9
$DIMSTYLE
  2
ISO-25
  9
$DIMCLRD
 70
     0
  9
$DIMCLRE
 70
     0
  9
$DIMCLRT
 70
     0
  9
$DIMTFAC
 40
1.0
  9
$DIMGAP
 40
1.524
  9
$DIMJUST
 70
     0
  9
$DIMSD1
 70
     0
  9
$DIMSD2
 70
     0
  9
$DIMTOLJ
 70
     0
  9
$DIMTZIN
 70
     0
  9
$DIMALTZ
 70
     0
  9
$DIMALTTZ
 70
     0
  9
$DIMUPT
 70
     0
  9
$DIMDEC
 70
     2
  9
$DIMTDEC
 70
     2
  9
$DIMALTU
 70
     2
  9
$DIMALTTD
 70
     3
  9
$DIMTXSTY
  7
Standard
  9
$DIMAUNIT
 70
     0
  9
$DIMADEC
 70
     2
  9
$DIMALTRND
 40
0.0
  9
$DIMAZIN
 70
     0
  9
$DIMDSEP
 70
    44
  9
$DIMATFIT
 70
     3
  9
$DIMFRAC
 70
     0
  9
$DIMLDRBLK
  1

  9
$DIMLUNIT
 70
     2
  9
$DIMLWD
 70
    -2
  9
$DIMLWE
 70
    -2
  9
$DIMTMOVE
 70
     0
  9
$LUNITS
 70
     2
  9
$LUPREC
 70
     2
  9
$SKETCHINC
 40
1.0
  9
$FILLETRAD
 40
10.0
  9
$AUNITS
 70
     0
  9
$AUPREC
 70
     2
  9
$MENU
  1
.
  9
$ELEVATION
 40
0.0
  9
$PELEVATION
 40
0.0
  9
$THICKNESS
 40
0.0
  9
$LIMCHECK
 70
     0
  9
$CHAMFERA
 40
0.0
  9
$CHAMFERB
 40
0.0
  9
$CHAMFERC
 40
0.0
  9
$CHAMFERD
 40
0.0
  9
$SKPOLY
 70
     0
  9
$TDCREATE
 40
2459097.31258919
  9
$TDUCREATE
 40
2459097.229255856
  9
$TDUPDATE
 40
2459097.312619282
  9
$TDUUPDATE
 40
2459097.229285949
  9
$TDINDWG
 40
0.0000000116
  9
$TDUSRTIMER
 40
0.0000000116
  9
$USRTIMER
 70
     1
  9
$ANGBASE
 50
0.0
  9
$ANGDIR
 70
     0
  9
$PDMODE
 70
     0
  9
$PDSIZE
 40
-1.0
  9
$PLINEWID
 40
0.0
  9
$SPLFRAME
 70
     0
  9
$SPLINETYPE
 70
     6
  9
$SPLINESEGS
 70
     8
  9
$HANDSEED
  5
3A3
  9
$SURFTAB1
 70
     6
  9
$SURFTAB2
 70
     6
  9
$SURFTYPE
 70
     6
  9
$SURFU
 70
     6
  9
$SURFV
 70
     6
  9
$UCSBASE
  2

  9
$UCSNAME
  2

  9
$UCSORG
 10
0.0
 20
0.0
 30
0.0
  9
$UCSXDIR
 10
1.0
 20
0.0
 30
0.0
  9
$UCSYDIR
 10
0.0
 20
1.0
 30
0.0
  9
$UCSORTHOREF
  2

  9
$UCSORTHOVIEW
 70
     0
  9
$UCSORGTOP
 10
0.0
 20
0.0
 30
0.0
  9
$UCSORGBOTTOM
 10
0.0
 20
0.0
 30
0.0
  9
$UCSORGLEFT
 10
0.0
 20
0.0
 30
0.0
  9
$UCSORGRIGHT
 10
0.0
 20
0.0
 30
0.0
  9
$UCSORGFRONT
 10
0.0
 20
0.0
 30
0.0
  9
$UCSORGBACK
 10
0.0
 20
0.0
 30
0.0
  9
$PUCSBASE
  2

  9
$PUCSNAME
  2

  9
$PUCSORG
 10
0.0
 20
0.0
 30
0.0
  9
$PUCSXDIR
 10
1.0
 20
0.0
 30
0.0
  9
$PUCSYDIR
 10
0.0
 20
1.0
 30
0.0
  9
$PUCSORTHOREF
  2

  9
$PUCSORTHOVIEW
 70
     0
  9
$PUCSORGTOP
 10
0.0
 20
0.0
 30
0.0
  9
$PUCSORGBOTTOM
 10
0.0
 20
0.0
 30
0.0
  9
$PUCSORGLEFT
 10
0.0
 20
0.0
 30
0.0
  9
$PUCSORGRIGHT
 10
0.0
 20
0.0
 30
0.0
  9
$PUCSORGFRONT
 10
0.0
 20
0.0
 30
0.0
  9
$PUCSORGBACK
 10
0.0
 20
0.0
 30
0.0
  9
$USERI1
 70
     0
  9
$USERI2
 70
     0
  9
$USERI3
 70
     0
  9
$USERI4
 70
     0
  9
$USERI5
 70
     0
  9
$USERR1
 40
0.0
  9
$USERR2
 40
0.0
  9
$USERR3
 40
0.0
  9
$USERR4
 40
0.0
  9
$USERR5
 40
0.0
  9
$WORLDVIEW
 70
     1
  9
$SHADEDGE
 70
     3
  9
$SHADEDIF
 70
    70
  9
$TILEMODE
 70
     1
  9
$MAXACTVP
 70
    64
  9
$PINSBASE
 10
0.0
 20
0.0
 30
0.0
  9
$PLIMCHECK
 70
     0
  9
$PEXTMIN
 10
1.0000000000E+20
 20
1.0000000000E+20
 30
1.0000000000E+20
  9
$PEXTMAX
 10
-1.0000000000E+20
 20
-1.0000000000E+20
 30
-1.0000000000E+20
  9
$PLIMMIN
 10
0.0
 20
0.0
  9
$PLIMMAX
 10
420.0
 20
297.0
  9
$UNITMODE
 70
     0
  9
$VISRETAIN
 70
     1
  9
$PLINEGEN
 70
     0
  9
$PSLTSCALE
 70
     1
  9
$TREEDEPTH
 70
  3020
  9
$CMLSTYLE
  2
Standard
  9
$CMLJUST
 70
     0
  9
$CMLSCALE
 40
20.0
  9
$PROXYGRAPHICS
 70
     1
  9
$MEASUREMENT
 70
     1
  9
$CELWEIGHT
370
    -1
  9
$ENDCAPS
280
     0
  9
$JOINSTYLE
280
     0
  9
$LWDISPLAY
290
     1
  9
$INSUNITS
 70
     4
  9
$HYPERLINKBASE
  1

  9
$STYLESHEET
  1

  9
$XEDIT
290
     1
  9
$CEPSNTYPE
380
     0
  9
$PSTYLEMODE
290
     1
  9
$FINGERPRINTGUID
  2
{0b68e4be-d9ab-4cea-91a2-c2945d163f8d}
  9
$VERSIONGUID
  2
{FAEB1C32-E019-11D5-929B-00C0DF256EC4}
  9
$EXTNAMES
290
     1
  9
$PSVPSCALE
 40
0.0
  9
$OLESTARTUP
290
     0
  0
ENDSEC
  0
SECTION
  2
CLASSES
  0
CLASS
  1
ACDBDICTIONARYWDFLT
  2
AcDbDictionaryWithDefault
  3
ObjectDBX Classes
 90
        0
280
     0
281
     0
  0
CLASS
  1
VISUALSTYLE
  2
AcDbVisualStyle
  3
ObjectDBX Classes
 90
     4095
280
     0
281
     0
  0
CLASS
  1
MATERIAL
  2
AcDbMaterial
  3
ObjectDBX Classes
 90
     1153
280
     0
281
     0
  0
CLASS
  1
SCALE
  2
AcDbScale
  3
ObjectDBX Classes
 90
     1153
280
     0
281
     0
  0
CLASS
  1
TABLESTYLE
  2
AcDbTableStyle
  3
ObjectDBX Classes
 90
     4095
280
     0
281
     0
  0
CLASS
  1
MLEADERSTYLE
  2
AcDbMLeaderStyle
  3
ACDB_MLEADERSTYLE_CLASS
 90
     4095
280
     0
281
     0
  0
CLASS
  1
SUN
  2
AcDbSun
  3
SCENEOE
 90
     1153
280
     0
281
     0
  0
CLASS
  1
ACDBPLACEHOLDER
  2
AcDbPlaceHolder
  3
ObjectDBX Classes
 90
        0
280
     0
281
     0
  0
CLASS
  1
LAYOUT
  2
AcDbLayout
  3
ObjectDBX Classes
 90
        0
280
     0
281
     0
  0
ENDSEC
  0
SECTION
  2
TABLES
  0
TABLE
  2
VPORT
  5
8
330
0
100
AcDbSymbolTable
 70
     1
  0
VPORT
  5
29
330
8
100
AcDbSymbolTableRecord
100
AcDbViewportTableRecord
  2
*Active
 70
     0
 10
0.0
 20
0.0
 11
1.0
 21
1.0
 12
6717.6224006434
 22
4765.7171476111
 13
0.0
 23
0.0
 14
10.0
 24
10.0
 15
10.0
 25
10.0
 16
0.0
 26
0.0
 36
1.0
 17
0.0
 27
0.0
 37
0.0
 40
1747.7330020917
 41
1.2473023247
 42
50.0
 43
0.0
 44
0.0
 50
0.0
 51
0.0
 71
     0
 72
   100
 73
     1
 74
     3
 75
     0
 76
     0
 77
     0
 78
     0
281
     0
 65
     1
110
0.0
120
0.0
130
0.0
111
1.0
121
0.0
131
0.0
112
0.0
122
1.0
132
0.0
 79
     0
146
0.0
  0
ENDTAB
  0
TABLE
  2
LTYPE
  5
5
330
0
100
AcDbSymbolTable
 70
     6
  0
LTYPE
  5
14
330
5
100
AcDbSymbolTableRecord
100
AcDbLinetypeTableRecord
  2
ByBlock
 70
     0
  3

 72
    65
 73
     0
 40
0.0
  0
LTYPE
  5
15
330
5
100
AcDbSymbolTableRecord
100
AcDbLinetypeTableRecord
  2
ByLayer
 70
     0
  3

 72
    65
 73
     0
 40
0.0
  0
LTYPE
  5
16
330
5
100
AcDbSymbolTableRecord
100
AcDbLinetypeTableRecord
  2
Continuous
 70
     0
  3
Solid line
 72
    65
 73
     0
 40
0.0
  0
LTYPE
  5
6E
330
5
100
AcDbSymbolTableRecord
100
AcDbLinetypeTableRecord
  2
HIDDEN
 70
     0
  3
Hidden __ __ __ __ __ __ __ __ __ __ __ __ __ __
 72
    65
 73
     2
 40
1.905
 49
1.27
 74
     0
 49
-0.635
 74
     0
  0
LTYPE
  5
6F
330
5
100
AcDbSymbolTableRecord
100
AcDbLinetypeTableRecord
  2
PHANTOM
 70
     0
  3
Phantom ______  __  __  ______  __  __  ______
 72
    65
 73
     6
 40
12.7
 49
6.35
 74
     0
 49
-1.27
 74
     0
 49
1.27
 74
     0
 49
-1.27
 74
     0
 49
1.27
 74
     0
 49
-1.27
 74
     0
  0
LTYPE
  5
70
330
5
100
AcDbSymbolTableRecord
100
AcDbLinetypeTableRecord
  2
CENTER
 70
     0
  3
Center ____ _ ____ _ ____ _ ____ _ ____ _ ____
 72
    65
 73
     4
 40
10.16
 49
6.35
 74
     0
 49
-1.27
 74
     0
 49
1.27
 74
     0
 49
-1.27
 74
     0
  0
LTYPE
  5
71
330
5
100
AcDbSymbolTableRecord
100
AcDbLinetypeTableRecord
  2
CENTERX2
 70
     0
  3
Center (2x) ________  __  ________  __  _____
 72
    65
 73
     4
 40
20.32
 49
12.7
 74
     0
 49
-2.54
 74
     0
 49
2.54
 74
     0
 49
-2.54
 74
     0
  0
LTYPE
  5
72
330
5
100
AcDbSymbolTableRecord
100
AcDbLinetypeTableRecord
  2
DOT2
 70
     0
  3
Dot (.5x) ........................................
 72
    65
 73
     2
 40
0.635
 49
0.0
 74
     0
 49
-0.635
 74
     0
  0
ENDTAB
  0
TABLE
  2
LAYER
  5
2
330
0
100
AcDbSymbolTable
 70
     1
  0
LAYER
  5
10
330
2
100
AcDbSymbolTableRecord
100
AcDbLayerTableRecord
  2
0
 70
     0
 62
     7
  6
Continuous
370
    -3
390
F
  0
ENDTAB
  0
TABLE
  2
STYLE
  5
3
330
0
100
AcDbSymbolTable
 70
     1
  0
STYLE
  5
11
330
3
100
AcDbSymbolTableRecord
100
AcDbTextStyleTableRecord
  2
Standard
 70
     0
 40
0.0
 41
1.0
 50
0.0
 71
     0
 42
3.5
  3
txt
  4

  0
ENDTAB
  0
TABLE
  2
VIEW
  5
6
330
0
100
AcDbSymbolTable
 70
     0
  0
ENDTAB
  0
TABLE
  2
UCS
  5
7
330
0
100
AcDbSymbolTable
 70
     0
  0
ENDTAB
  0
TABLE
  2
APPID
  5
9
330
0
100
AcDbSymbolTable
 70
     1
  0
APPID
  5
12
330
9
100
AcDbSymbolTableRecord
100
AcDbRegAppTableRecord
  2
ACAD
 70
     0
  0
ENDTAB
  0
TABLE
  2
DIMSTYLE
  5
A
330
0
100
AcDbSymbolTable
 70
     1
100
AcDbDimStyleTable
  0
DIMSTYLE
105
27
330
A
100
AcDbSymbolTableRecord
100
AcDbDimStyleTableRecord
  2
ISO-25
 70
     0
 41
2.5
 42
0.625
 43
3.75
 44
1.25
 73
     0
 74
     0
 77
     1
 78
     8
140
2.5
141
2.5
143
0.0393700787
147
0.625
171
     3
172
     1
178
     0
271
     2
272
     2
274
     3
278
    44
283
     0
284
     8
340
11
  0
ENDTAB
  0
TABLE
  2
BLOCK_RECORD
  5
1
330
0
100
AcDbSymbolTable
 70
     1
  0
BLOCK_RECORD
  5
1F
330
1
100
AcDbSymbolTableRecord
100
AcDbBlockTableRecord
  2
*Model_Space
340
22
  0
BLOCK_RECORD
  5
1B
330
1
100
AcDbSymbolTableRecord
100
AcDbBlockTableRecord
  2
*Paper_Space
340
1E
  0
BLOCK_RECORD
  5
23
330
1
100
AcDbSymbolTableRecord
100
AcDbBlockTableRecord
  2
*Paper_Space0
340
26
  0
ENDTAB
  0
ENDSEC
  0
SECTION
  2
BLOCKS
  0
BLOCK
  5
20
330
1F
100
AcDbEntity
  8
0
100
AcDbBlockBegin
  2
*Model_Space
 70
     0
 10
0.0
 20
0.0
 30
0.0
  3
*Model_Space
  1

  0
ENDBLK
  5
21
330
1F
100
AcDbEntity
  8
0
100
AcDbBlockEnd
  0
BLOCK
  5
1C
330
1B
100
AcDbEntity
 67
     1
  8
0
100
AcDbBlockBegin
  2
*Paper_Space
 70
     0
 10
0.0
 20
0.0
 30
0.0
  3
*Paper_Space
  1

  0
ENDBLK
  5
1D
330
1B
100
AcDbEntity
 67
     1
  8
0
100
AcDbBlockEnd
  0
BLOCK
  5
24
330
23
100
AcDbEntity
  8
0
100
AcDbBlockBegin
  2
*Paper_Space0
 70
     0
 10
0.0
 20
0.0
 30
0.0
  3
*Paper_Space0
  1

  0
ENDBLK
  5
25
330
23
100
AcDbEntity
  8
0
100
AcDbBlockEnd
  0
ENDSEC
  0
SECTION
  2
ENTITIES
  0
ARC
  5
73
330
1F
100
AcDbEntity
  8
0
  6
Continuous
 62
     7
100
AcDbCircle
 10
5777.1890995411
 20
4931.949875649
 30
0.0
 40
3.00000000000037
100
AcDbArc
 50
90.0000563729
 51
173.3453670322
  0
ARC
  5
74
330
1F
100
AcDbEntity
  8
0
  6
Continuous
 62
     7
100
AcDbCircle
 10
5825.8484182836
 20
4931.949875649
 30
0.0
 40
2.999999999998724
100
AcDbArc
 50
6.6546329678
 51
89.9999436252
  0
ARC
  5
75
330
1F
100
AcDbEntity
  8
0
  6
Continuous
 62
     7
100
AcDbCircle
 10
5777.3969213128
 20
4807.9498804173
 30
0.0
 40
3.000000000000512
100
AcDbArc
 50
185.8478511548
 51
270.0003184282
  0
ARC
  5
76
330
1F
100
AcDbEntity
  8
0
  6
Continuous
 62
     7
100
AcDbCircle
 10
5825.6405965119
 20
4807.9498804173
 30
0.0
 40
2.999999999999514
100
AcDbArc
 50
269.9996815718
 51
354.1521488452
  0
ARC
  5
77
330
1F
100
AcDbEntity
  8
0
  6
Continuous
 62
     7
100
AcDbCircle
 10
5781.518757005
 20
4948.4498718343
 30
0.0
 40
3.000000000001146
100
AcDbArc
 50
90.000168478
 51
179.999831522
  0
ARC
  5
78
330
1F
100
AcDbEntity
  8
0
  6
Continuous
 62
     7
100
AcDbCircle
 10
5821.5187608197
 20
4948.4498718343
 30
0.0
 40
3.000000000002056
100
AcDbArc
 50
0.000168478
 51
89.999831522
  0
CIRCLE
  5
79
330
1F
100
AcDbEntity
  8
0
  6
Continuous
 62
     7
100
AcDbCircle
 10
6885.5187553361
 20
4992.9657967648
 30
0.0
 40
4.500000000000909
  0
CIRCLE
  5
7A
330
1F
100
AcDbEntity
  8
0
  6
Continuous
 62
     7
100
AcDbCircle
 10
5662.5187553361
 20
4992.9657967648
 30
0.0
 40
4.500000000000909
  0
ARC
  5
7B
330
1F
100
AcDbEntity
  8
0
  6
Continuous
 62
     7
100
AcDbCircle
 10
5801.518755336
 20
4912.949886165
 30
0.0
 40
40.00000000000085
100
AcDbArc
 50
22.5226735859
 51
54.9003678044
  0
ARC
  5
7C
330
1F
100
AcDbEntity
  8
0
  6
Continuous
 62
     7
100
AcDbCircle
 10
5801.518755336
 20
4912.949886165
 30
0.0
 40
40.00000000000023
100
AcDbArc
 50
125.0996321952
 51
216.1070114061
  0
ARC
  5
7D
330
1F
100
AcDbEntity
  8
0
  6
Continuous
 62
     7
100
AcDbCircle
 10
5801.518755336
 20
4912.949886165
 30
0.0
 40
40.00000000000085
100
AcDbArc
 50
323.8929885945
 51
22.5226735859
  0
ARC
  5
7E
330
1F
100
AcDbEntity
  8
0
  6
Continuous
 62
     7
100
AcDbCircle
 10
5974.0187583163
 20
5312.965796774
 30
0.0
 40
19.99999999999965
100
AcDbArc
 50
24.7216522437
 51
155.2783477563
  0
ARC
  5
7F
330
1F
100
AcDbEntity
  8
0
  6
Continuous
 62
     7
100
AcDbCircle
 10
5974.0187583163
 20
5312.965796774
 30
0.0
 40
20.00000050622933
100
AcDbArc
 50
204.7216553936
 51
335.2783446064
  0
ARC
  5
80
330
1F
100
AcDbEntity
  8
0
  6
Continuous
 62
     7
100
AcDbCircle
 10
6574.0187523559
 20
5312.965796774
 30
0.0
 40
20.00000000000079
100
AcDbArc
 50
24.7216522437
 51
155.2783477563
  0
ARC
  5
81
330
1F
100
AcDbEntity
  8
0
  6
Continuous
 62
     7
100
AcDbCircle
 10
6574.0187523559
 20
5312.965796774
 30
0.0
 40
20.00000050622819
100
AcDbArc
 50
204.7216553936
 51
335.2783446064
  0
ARC
  5
82
330
1F
100
AcDbEntity
  8
0
  6
Continuous
 62
     7
100
AcDbCircle
 10
6574.1281503389
 20
5535.1109389068
 30
0.0
 40
32.33550479464333
100
AcDbArc
 50
270.3198924812
 51
277.0049765231
  0
ARC
  5
83
330
1F
100
AcDbEntity
  8
0
  6
Continuous
 62
     7
100
AcDbCircle
 10
6575.9284343075
 20
5520.6909757498
 30
0.0
 40
18.76021171220019
100
AcDbArc
 50
277.5090431393
 51
284.9284589594
  0
ARC
  5
84
330
1F
100
AcDbEntity
  8
0
  6
Continuous
 62
     7
100
AcDbCircle
 10
6578.8866333412
 20
5510.9057223097
 30
0.0
 40
7.610353578726039
100
AcDbArc
 50
284.2605436333
 51
297.2230831409
  0
ARC
  5
85
330
1F
100
AcDbEntity
  8
0
  6
Continuous
 62
     7
100
AcDbCircle
 10
6582.361677754
 20
5504.2538780493
 30
0.0
 40
0.9028656005484936
100
AcDbArc
 50
304.3212370263
 51
1.527489037
  0
ARC
  5
86
330
1F
100
AcDbEntity
  8
0
  6
Continuous
 62
     7
100
AcDbCircle
 10
6578.2878107326
 20
5496.8288859765
 30
0.0
 40
9.349662180210512
100
AcDbArc
 50
65.4259132946
 51
77.2500192839
  0
ARC
  5
87
330
1F
100
AcDbEntity
  8
0
  6
Continuous
 62
     7
100
AcDbCircle
 10
6574.0311103848
 20
5471.9439098559
 30
0.0
 40
34.65322960903619
100
AcDbArc
 50
85.5780423406
 51
90.4998136278
  0
ARC
  5
88
330
1F
100
AcDbEntity
  8
0
  6
Continuous
 62
     7
100
AcDbCircle
 10
6572.1098117703
 20
5487.7114274744
 30
0.0
 40
18.7637119139896
100
AcDbArc
 50
97.5099176941
 51
104.9278581012
  0
ARC
  5
89
330
1F
100
AcDbEntity
  8
0
  6
Continuous
 62
     7
100
AcDbCircle
 10
6565.6757908129
 20
5504.1520104141
 30
0.0
 40
0.9028018742014641
100
AcDbArc
 50
124.3212205958
 51
181.5328210573
  0
ARC
  5
8A
330
1F
100
AcDbEntity
  8
0
  6
Continuous
 62
     7
100
AcDbCircle
 10
6567.3723883021
 20
5507.2573786412
 30
0.0
 40
3.55446644681556
100
AcDbArc
 50
233.8582525006
 51
244.8442492748
  0
ARC
  5
8B
330
1F
100
AcDbEntity
  8
0
  6
Continuous
 62
     7
100
AcDbCircle
 10
6569.7508911975
 20
5511.5809061185
 30
0.0
 40
9.353784975636566
100
AcDbArc
 50
245.4293976898
 51
257.2482147718
  0
ARC
  5
8C
330
1F
100
AcDbEntity
  8
0
  6
Continuous
 62
     7
100
AcDbCircle
 10
6573.0783241511
 20
5527.1910861765
 30
0.0
 40
24.37576296501572
100
AcDbArc
 50
258.1884349846
 51
265.8978128643
  0
ARC
  5
8D
330
1F
100
AcDbEntity
  8
0
  6
Continuous
 62
     7
100
AcDbCircle
 10
6574.0050433622
 20
5536.4224709933
 30
0.0
 40
34.61378780726296
100
AcDbArc
 50
265.5752364762
 51
270.5026194921
  0
ARC
  5
8E
330
1F
100
AcDbEntity
  8
0
  6
Continuous
 62
     7
100
AcDbCircle
 10
6581.7780179873
 20
5505.3128618429
 30
0.0
 40
1.011452879789252
100
AcDbArc
 50
305.6856637856
 51
346.49097668
  0
ARC
  5
8F
330
1F
100
AcDbEntity
  8
0
  6
Continuous
 62
     7
100
AcDbCircle
 10
6575.8199342489
 20
5520.7539161982
 30
0.0
 40
17.73567580704225
100
AcDbArc
 50
277.2939217152
 51
285.1424741739
  0
ARC
  5
90
330
1F
100
AcDbEntity
  8
0
  6
Continuous
 62
     7
100
AcDbCircle
 10
6574.0067665111
 20
5535.6261447272
 30
0.0
 40
32.7221639764993
100
AcDbArc
 50
265.432718202
 51
270.6451377665
  0
ARC
  5
91
330
1F
100
AcDbEntity
  8
0
  6
Continuous
 62
     7
100
AcDbCircle
 10
6569.9867985853
 20
5512.1329456634
 30
0.0
 40
8.835655812180235
100
AcDbArc
 50
245.0806492563
 51
257.5952833222
  0
ARC
  5
92
330
1F
100
AcDbEntity
  8
0
  6
Continuous
 62
     7
100
AcDbCircle
 10
6574.0307382007
 20
5473.7456143222
 30
0.0
 40
32.72216397649941
100
AcDbArc
 50
85.432718202
 51
90.6451377665
  0
ARC
  5
93
330
1F
100
AcDbEntity
  8
0
  6
Continuous
 62
     7
100
AcDbCircle
 10
6572.2175958623
 20
5488.6175726971
 30
0.0
 40
17.73594321602422
100
AcDbArc
 50
97.2937968055
 51
105.1423254029
  0
ARC
  5
94
330
1F
100
AcDbEntity
  8
0
  6
Continuous
 62
     7
100
AcDbCircle
 10
6578.0515197063
 20
5497.2408968204
 30
0.0
 40
8.833423547519212
100
AcDbArc
 50
65.0797411706
 51
77.5973039406
  0
ARC
  5
95
330
1F
100
AcDbEntity
  8
0
  6
Continuous
 62
     7
100
AcDbCircle
 10
6566.1341140388
 20
5504.157471674
 30
0.0
 40
0.85937211416591
100
AcDbArc
 50
122.7300125575
 51
183.1222310873
  0
ARC
  5
96
330
1F
100
AcDbEntity
  8
0
  6
Continuous
 62
     7
100
AcDbCircle
 10
6581.9032864994
 20
5504.2483895612
 30
0.0
 40
0.8594747580300719
100
AcDbArc
 50
302.7338700135
 51
3.1201716395
  0
ARC
  5
97
330
1F
100
AcDbEntity
  8
0
  6
Continuous
 62
     7
100
AcDbCircle
 10
6569.9867985853
 20
5511.1670225925
 30
0.0
 40
8.835655812180729
100
AcDbArc
 50
245.0806492563
 51
257.5952833222
  0
ARC
  5
98
330
1F
100
AcDbEntity
  8
0
  6
Continuous
 62
     7
100
AcDbCircle
 10
6575.8199342489
 20
5519.7879931273
 30
0.0
 40
17.73567580704225
100
AcDbArc
 50
277.2939217152
 51
285.1424741739
  0
ARC
  5
99
330
1F
100
AcDbEntity
  8
0
  6
Continuous
 62
     7
100
AcDbCircle
 10
6574.006766511
 20
5534.6602216563
 30
0.0
 40
32.72216397650032
100
AcDbArc
 50
265.432718202
 51
270.6451377665
  0
ARC
  5
9A
330
1F
100
AcDbEntity
  8
0
  6
Continuous
 62
     7
100
AcDbCircle
 10
5974.1282296174
 20
5535.1093055447
 30
0.0
 40
32.33387104873857
100
AcDbArc
 50
270.3197787228
 51
277.0051481364
  0
ARC
  5
9B
330
1F
100
AcDbEntity
  8
0
  6
Continuous
 62
     7
100
AcDbCircle
 10
5975.9288326099
 20
5520.68869275
 30
0.0
 40
18.75789701874837
100
AcDbArc
 50
277.5087663143
 51
284.929009481
  0
ARC
  5
9C
330
1F
100
AcDbEntity
  8
0
  6
Continuous
 62
     7
100
AcDbCircle
 10
5978.8867533455
 20
5510.9055129801
 30
0.0
 40
7.61011526608034
100
AcDbArc
 50
284.2598822263
 51
297.2230405855
  0
ARC
  5
9D
330
1F
100
AcDbEntity
  8
0
  6
Continuous
 62
     7
100
AcDbCircle
 10
5982.3617258181
 20
5504.2538215841
 30
0.0
 40
0.9027952271412889
100
AcDbArc
 50
304.321050693
 51
1.5311929697
  0
ARC
  5
9E
330
1F
100
AcDbEntity
  8
0
  6
Continuous
 62
     7
100
AcDbCircle
 10
5978.2875385414
 20
5496.8280624161
 30
0.0
 40
9.35052682130222
100
AcDbArc
 50
65.426461929
 51
77.2494706495
  0
ARC
  5
9F
330
1F
100
AcDbEntity
  8
0
  6
Continuous
 62
     7
100
AcDbCircle
 10
5974.0311163452
 20
5471.9439098559
 30
0.0
 40
34.6532296090363
100
AcDbArc
 50
85.5780423406
 51
90.4998136277
  0
ARC
  5
A0
330
1F
100
AcDbEntity
  8
0
  6
Continuous
 62
     7
100
AcDbCircle
 10
5972.1102104668
 20
5487.7091424163
 30
0.0
 40
18.76602870141249
100
AcDbArc
 50
97.5101946627
 51
104.927307436
  0
ARC
  5
A1
330
1F
100
AcDbEntity
  8
0
  6
Continuous
 62
     7
100
AcDbCircle
 10
5965.6758388658
 20
5504.1519539566
 30
0.0
 40
0.9028722350075277
100
AcDbArc
 50
124.3214066039
 51
181.5291175294
  0
ARC
  5
A2
330
1F
100
AcDbEntity
  8
0
  6
Continuous
 62
     7
100
AcDbCircle
 10
5967.3881575379
 20
5507.286949412
 30
0.0
 40
3.587933656713461
100
AcDbArc
 50
234.2851701595
 51
244.8171296817
  0
ARC
  5
A3
330
1F
100
AcDbEntity
  8
0
  6
Continuous
 62
     7
100
AcDbCircle
 10
5969.7506187276
 20
5511.580081693
 30
0.0
 40
9.352919427316888
100
AcDbArc
 50
245.428848867
 51
257.2487635945
  0
ARC
  5
A4
330
1F
100
AcDbEntity
  8
0
  6
Continuous
 62
     7
100
AcDbCircle
 10
5973.078630541
 20
5527.1935633618
 30
0.0
 40
24.37825529559075
100
AcDbArc
 50
258.1888670244
 51
265.8975250652
  0
ARC
  5
A5
330
1F
100
AcDbEntity
  8
0
  6
Continuous
 62
     7
100
AcDbCircle
 10
5974.0050493226
 20
5536.4224709933
 30
0.0
 40
34.61378780726285
100
AcDbArc
 50
265.5752364762
 51
270.5026194923
  0
ARC
  5
A6
330
1F
100
AcDbEntity
  8
0
  6
Continuous
 62
     7
100
AcDbCircle
 10
5981.7780239477
 20
5505.3128618429
 30
0.0
 40
1.011452879789039
100
AcDbArc
 50
305.6856637857
 51
346.49097668
  0
ARC
  5
A7
330
1F
100
AcDbEntity
  8
0
  6
Continuous
 62
     7
100
AcDbCircle
 10
5975.8199148099
 20
5520.7541863523
 30
0.0
 40
17.73594321602403
100
AcDbArc
 50
277.2937968055
 51
285.1423254029
  0
ARC
  5
A8
330
1F
100
AcDbEntity
  8
0
  6
Continuous
 62
     7
100
AcDbCircle
 10
5974.0067724716
 20
5535.6261447272
 30
0.0
 40
32.7221639764993
100
AcDbArc
 50
265.432718202
 51
270.6451377665
  0
ARC
  5
A9
330
1F
100
AcDbEntity
  8
0
  6
Continuous
 62
     7
100
AcDbCircle
 10
5969.9870389408
 20
5512.1335478745
 30
0.0
 40
8.836300719147228
100
AcDbArc
 50
245.0809161667
 51
257.5944490396
  0
ARC
  5
AA
330
1F
100
AcDbEntity
  8
0
  6
Continuous
 62
     7
100
AcDbCircle
 10
5974.0307441612
 20
5473.7456143222
 30
0.0
 40
32.72216397649941
100
AcDbArc
 50
85.432718202
 51
90.6451377665
  0
ARC
  5
AB
330
1F
100
AcDbEntity
  8
0
  6
Continuous
 62
     7
100
AcDbCircle
 10
5972.2175764233
 20
5488.6178428512
 30
0.0
 40
17.7356758070441
100
AcDbArc
 50
97.2939217152
 51
105.1424741739
  0
ARC
  5
AC
330
1F
100
AcDbEntity
  8
0
  6
Continuous
 62
     7
100
AcDbCircle
 10
5978.0517598208
 20
5497.2414983978
 30
0.0
 40
8.832779317695847
100
AcDbArc
 50
65.079474402
 51
77.5981380595
  0
ARC
  5
AD
330
1F
100
AcDbEntity
  8
0
  6
Continuous
 62
     7
100
AcDbCircle
 10
5966.1341199992
 20
5504.157471674
 30
0.0
 40
0.8593721141667814
100
AcDbArc
 50
122.7300125652
 51
183.1222310915
  0
ARC
  5
AE
330
1F
100
AcDbEntity
  8
0
  6
Continuous
 62
     7
100
AcDbCircle
 10
5981.9032924599
 20
5504.2483895612
 30
0.0
 40
0.8594747580293303
100
AcDbArc
 50
302.7338700059
 51
3.1201716354
  0
ARC
  5
AF
330
1F
100
AcDbEntity
  8
0
  6
Continuous
 62
     7
100
AcDbCircle
 10
5969.9870389408
 20
5511.1676248036
 30
0.0
 40
8.836300719148904
100
AcDbArc
 50
245.0809161667
 51
257.5944490396
  0
ARC
  5
B0
330
1F
100
AcDbEntity
  8
0
  6
Continuous
 62
     7
100
AcDbCircle
 10
5975.8199148099
 20
5519.7882632814
 30
0.0
 40
17.73594321602403
100
AcDbArc
 50
277.2937968055
 51
285.1423254029
  0
ARC
  5
B1
330
1F
100
AcDbEntity
  8
0
  6
Continuous
 62
     7
100
AcDbCircle
 10
5974.0067724715
 20
5534.6602216563
 30
0.0
 40
32.72216397650032
100
AcDbArc
 50
265.432718202
 51
270.6451377665
  0
CIRCLE
  5
B2
330
1F
100
AcDbEntity
  8
0
  6
Continuous
 62
     7
100
AcDbCircle
 10
6574.0187523558
 20
5512.9657967648
 30
0.0
 40
29.50000000000012
  0
CIRCLE
  5
B3
330
1F
100
AcDbEntity
  8
0
  6
Continuous
 62
     7
100
AcDbCircle
 10
6574.0187523558
 20
5512.9657967648
 30
0.0
 40
30.00000000000071
  0
CIRCLE
  5
B4
330
1F
100
AcDbEntity
  8
0
  6
Continuous
 62
     7
100
AcDbCircle
 10
5974.0187583164
 20
5512.9657967648
 30
0.0
 40
29.49999999999925
  0
CIRCLE
  5
B5
330
1F
100
AcDbEntity
  8
0
  6
Continuous
 62
     7
100
AcDbCircle
 10
5974.0187583164
 20
5512.9657967648
 30
0.0
 40
29.99999999999957
  0
ARC
  5
B6
330
1F
100
AcDbEntity
  8
0
  6
Continuous
 62
     7
100
AcDbCircle
 10
6574.0187523558
 20
5512.9657967648
 30
0.0
 40
13.99999720743554
100
AcDbArc
 50
339.5575579255
 51
200.4424463344
  0
ARC
  5
B7
330
1F
100
AcDbEntity
  8
0
  6
Continuous
 62
     7
100
AcDbCircle
 10
6574.0187523558
 20
5512.9657967648
 30
0.0
 40
13.0000014990523
100
AcDbArc
 50
339.1746305984
 51
200.8253694016
  0
ARC
  5
B8
330
1F
100
AcDbEntity
  8
0
  6
Continuous
 62
     7
100
AcDbCircle
 10
6574.0187523558
 20
5512.9657967648
 30
0.0
 40
13.99999720743554
100
AcDbArc
 50
200.4424463344
 51
339.5575579255
  0
ARC
  5
B9
330
1F
100
AcDbEntity
  8
0
  6
Continuous
 62
     7
100
AcDbCircle
 10
6574.1490338723
 20
5534.7716886108
 30
0.0
 40
32.51128293106472
100
AcDbArc
 50
270.3985890961
 51
276.9298384689
  0
ARC
  5
BA
330
1F
100
AcDbEntity
  8
0
  6
Continuous
 62
     7
100
AcDbCircle
 10
6573.1483361634
 20
5527.623478993
 30
0.0
 40
25.32747503465366
100
AcDbArc
 50
258.476708076
 51
265.8934337911
  0
ARC
  5
BB
330
1F
100
AcDbEntity
  8
0
  6
Continuous
 62
     7
100
AcDbCircle
 10
5974.0187583164
 20
5512.9657967648
 30
0.0
 40
13.0000014990523
100
AcDbArc
 50
339.1746305984
 51
200.8253694016
  0
ARC
  5
BC
330
1F
100
AcDbEntity
  8
0
  6
Continuous
 62
     7
100
AcDbCircle
 10
5974.0187583164
 20
5512.9657967648
 30
0.0
 40
14.00000279256466
100
AcDbArc
 50
200.4424378146
 51
339.5575579255
  0
ARC
  5
BD
330
1F
100
AcDbEntity
  8
0
  6
Continuous
 62
     7
100
AcDbCircle
 10
5974.0187583164
 20
5512.9657967648
 30
0.0
 40
14.00000279256466
100
AcDbArc
 50
339.5575579255
 51
200.4424378146
  0
ARC
  5
BE
330
1F
100
AcDbEntity
  8
0
  6
Continuous
 62
     7
100
AcDbCircle
 10
5974.1491734482
 20
5534.7691083442
 30
0.0
 40
32.50870179752851
100
AcDbArc
 50
270.3983852442
 51
276.9301012452
  0
ARC
  5
BF
330
1F
100
AcDbEntity
  8
0
  6
Continuous
 62
     7
100
AcDbCircle
 10
5973.1485674709
 20
5527.6254593788
 30
0.0
 40
25.32946647368423
100
AcDbArc
 50
258.4770374441
 51
265.8932461575
  0
ARC
  5
C0
330
1F
100
AcDbEntity
  8
0
  6
Continuous
 62
     7
100
AcDbCircle
 10
7307.8113361803
 20
5607.9797330133
 30
0.0
 40
4.324969328314173
100
AcDbArc
 50
206.0594629037
 51
241.476000153
  0
ARC
  5
C1
330
1F
100
AcDbEntity
  8
0
  6
Continuous
 62
     7
100
AcDbCircle
 10
7307.8113361803
 20
5607.9797578743
 30
0.0
 40
4.324969328314554
100
AcDbArc
 50
118.523999847
 51
153.9405370962
  0
ARC
  5
C2
330
1F
100
AcDbEntity
  8
0
  6
Continuous
 62
     7
100
AcDbCircle
 10
7307.8113361804
 20
5517.9797294369
 30
0.0
 40
4.324969328314284
100
AcDbArc
 50
206.0594629017
 51
241.476000152
  0
ARC
  5
C3
330
1F
100
AcDbEntity
  8
0
  6
Continuous
 62
     7
100
AcDbCircle
 10
7307.8113163305
 20
5517.9797435098
 30
0.0
 40
4.32496932831511
100
AcDbArc
 50
118.5237005553
 51
153.9399385117
  0
ARC
  5
C4
330
1F
100
AcDbEntity
  8
0
  6
Continuous
 62
     7
100
AcDbCircle
 10
7320.9576401821
 20
4932.9498823247
 30
0.0
 40
20.00000000000015
100
AcDbArc
 50
359.9999692642
 51
89.9999453587
  0
ARC
  5
C5
330
1F
100
AcDbEntity
  8
0
  6
Continuous
 62
     7
100
AcDbCircle
 10
7320.9576401821
 20
4892.949899014
 30
0.0
 40
20.00000000000091
100
AcDbArc
 50
270.0000546412
 51
359.9999453585
  0
ARC
  5
C6
330
1F
100
AcDbEntity
  8
0
  6
Continuous
 62
     7
100
AcDbCircle
 10
7572.9556934036
 20
4931.949875649
 30
0.0
 40
3.000000000000476
100
AcDbArc
 50
6.6546329679
 51
89.9999436252
  0
ARC
  5
C7
330
1F
100
AcDbEntity
  8
0
  6
Continuous
 62
     7
100
AcDbCircle
 10
7524.5042262351
 20
4807.9498804173
 30
0.0
 40
3.000000000000556
100
AcDbArc
 50
185.8478511552
 51
269.9997492462
  0
ARC
  5
C8
330
1F
100
AcDbEntity
  8
0
  6
Continuous
 62
     7
100
AcDbCircle
 10
7572.747871632
 20
4807.9498804173
 30
0.0
 40
2.999999999999716
100
AcDbArc
 50
269.9999661618
 51
354.1521488443
  0
ARC
  5
C9
330
1F
100
AcDbEntity
  8
0
  6
Continuous
 62
     7
100
AcDbCircle
 10
7491.6260316482
 20
4935.9498837553
 30
0.0
 40
3.000000000000237
100
AcDbArc
 50
89.999599296
 51
179.9998315232
  0
ARC
  5
CA
330
1F
100
AcDbEntity
  8
0
  6
Continuous
 62
     7
100
AcDbCircle
 10
7491.6260316482
 20
4889.9498975834
 30
0.0
 40
3.000000000000237
100
AcDbArc
 50
180.0001684768
 51
270.000400704
  0
ARC
  5
CB
330
1F
100
AcDbEntity
  8
0
  6
Continuous
 62
     7
100
AcDbCircle
 10
7528.626032125
 20
4948.4498718344
 30
0.0
 40
3.000000000000607
100
AcDbArc
 50
89.9995992941
 51
179.9998315231
  0
ARC
  5
CC
330
1F
100
AcDbEntity
  8
0
  6
Continuous
 62
     7
100
AcDbCircle
 10
7568.6260508409
 20
4948.4498718343
 30
0.0
 40
3.000000000000703
100
AcDbArc
 50
0.0001684781
 51
90.000116114
  0
ARC
  5
CD
330
1F
100
AcDbEntity
  8
0
  6
Continuous
 62
     7
100
AcDbCircle
 10
7338.5301309732
 20
5312.9657860574
 30
0.0
 40
28.00000000000093
100
AcDbArc
 50
15.4636342606
 51
45.5847087679
  0
ARC
  5
CE
330
1F
100
AcDbEntity
  8
0
  6
Continuous
 62
     7
100
AcDbCircle
 10
7338.5301305212
 20
5312.9658058373
 30
0.0
 40
28.00000000000076
100
AcDbArc
 50
314.415292527
 51
344.5348076015
  0
ARC
  5
CF
330
1F
100
AcDbEntity
  8
0
  6
Continuous
 62
     7
100
AcDbCircle
 10
7308.326056682
 20
5620.2490108295
 30
0.0
 40
2.200000000000013
100
AcDbArc
 50
78.0005868032
 51
179.9994031918
  0
ARC
  5
D0
330
1F
100
AcDbEntity
  8
0
  6
Continuous
 62
     7
100
AcDbCircle
 10
7353.9260388009
 20
5610.5564344939
 30
0.0
 40
2.20000000000019
100
AcDbArc
 50
0.000514192
 51
78.0001894284
  0
ARC
  5
D1
330
1F
100
AcDbEntity
  8
0
  6
Continuous
 62
     7
100
AcDbCircle
 10
7783.9260459533
 20
5200.7657967648
 30
0.0
 40
2.200000000001637
100
AcDbArc
 50
0.0000003126
 51
89.9999996901
  0
ARC
  5
D2
330
1F
100
AcDbEntity
  8
0
  6
Continuous
 62
     7
100
AcDbCircle
 10
7526.257265589
 20
4932.0912442144
 30
0.0
 40
2.860414789648485
100
AcDbArc
 50
92.0233201082
 51
175.8644139495
  0
ARC
  5
D3
330
1F
100
AcDbEntity
  8
0
  6
Continuous
 62
     7
100
AcDbCircle
 10
7366.1261170895
 20
5485.0177192941
 30
0.0
 40
14.04532662979771
100
AcDbArc
 50
83.2538341642
 51
96.661811633
  0
ARC
  5
D4
330
1F
100
AcDbEntity
  8
0
  6
Continuous
 62
     7
100
AcDbCircle
 10
5662.5187479124
 20
4387.3999936112
 30
0.0
 40
4.32496932831573
100
AcDbArc
 50
116.0594629037
 51
151.4760001529
  0
ARC
  5
D5
330
1F
100
AcDbEntity
  8
0
  6
Continuous
 62
     7
100
AcDbCircle
 10
5662.5187727734
 20
4387.3999936112
 30
0.0
 40
4.324969328314173
100
AcDbArc
 50
28.5239998471
 51
63.9405370963
  0
ARC
  5
D6
330
1F
100
AcDbEntity
  8
0
  6
Continuous
 62
     7
100
AcDbCircle
 10
5802.5187336073
 20
4387.3999936112
 30
0.0
 40
4.32496932831573
100
AcDbArc
 50
116.0594629037
 51
151.4760001529
  0
ARC
  5
D7
330
1F
100
AcDbEntity
  8
0
  6
Continuous
 62
     7
100
AcDbCircle
 10
5802.5187476801
 20
4387.400013461
 30
0.0
 40
4.324969328315926
100
AcDbArc
 50
28.5237005553
 51
63.9399385116
  0
ARC
  5
D8
330
1F
100
AcDbEntity
  8
0
  6
Continuous
 62
     7
100
AcDbCircle
 10
5801.5187553361
 20
4146.5852838382
 30
0.0
 40
5.250000000001333
100
AcDbArc
 50
98.2132107017
 51
261.7867892983
  0
ARC
  5
D9
330
1F
100
AcDbEntity
  8
0
  6
Continuous
 62
     7
100
AcDbCircle
 10
5801.5187553361
 20
4146.5852838382
 30
0.0
 40
5.250000000000553
100
AcDbArc
 50
278.2132107017
 51
81.7867892983
  0
ARC
  5
DA
330
1F
100
AcDbEntity
  8
0
  6
Continuous
 62
     7
100
AcDbCircle
 10
5801.5187553361
 20
4146.5852838382
 30
0.0
 40
5.250000000000433
100
AcDbArc
 50
81.7867892983
 51
98.2132107017
  0
ARC
  5
DB
330
1F
100
AcDbEntity
  8
0
  6
Continuous
 62
     7
100
AcDbCircle
 10
5801.5187553361
 20
4146.5852838382
 30
0.0
 40
5.250000000001333
100
AcDbArc
 50
261.7867892983
 51
278.2132107017
  0
CIRCLE
  5
DC
330
1F
100
AcDbEntity
  8
0
  6
Continuous
 62
     7
100
AcDbCircle
 10
5801.5187553361
 20
4146.5852838382
 30
0.0
 40
34.99999999999727
  0
CIRCLE
  5
DD
330
1F
100
AcDbEntity
  8
0
  6
Continuous
 62
     7
100
AcDbCircle
 10
5801.5187553361
 20
4146.5852838382
 30
0.0
 40
35.16921944985643
  0
CIRCLE
  5
DE
330
1F
100
AcDbEntity
  8
0
  6
Continuous
 62
     7
100
AcDbCircle
 10
5801.5187553361
 20
4146.5852838382
 30
0.0
 40
24.96512544439156
  0
CIRCLE
  5
DF
330
1F
100
AcDbEntity
  8
0
  6
Continuous
 62
     7
100
AcDbCircle
 10
5801.5187553361
 20
4146.5852838382
 30
0.0
 40
21.99999999999727
  0
CIRCLE
  5
E0
330
1F
100
AcDbEntity
  8
0
  6
Continuous
 62
     7
100
AcDbCircle
 10
5801.5187553361
 20
4146.5852838382
 30
0.0
 40
20.49999999999727
  0
CIRCLE
  5
E1
330
1F
100
AcDbEntity
  8
0
  6
Continuous
 62
     7
100
AcDbCircle
 10
5801.5187553361
 20
4146.5852838382
 30
0.0
 40
19.48700763429952
  0
CIRCLE
  5
E2
330
1F
100
AcDbEntity
  8
0
  6
Continuous
 62
     7
100
AcDbCircle
 10
5801.5187553361
 20
4146.5852838382
 30
0.0
 40
5.69999999999709
  0
CIRCLE
  5
E3
330
1F
100
AcDbEntity
  8
0
  6
Continuous
 62
     7
100
AcDbCircle
 10
5801.5187553361
 20
4160.5852838382
 30
0.0
 40
4.999999999999091
  0
CIRCLE
  5
E4
330
1F
100
AcDbEntity
  8
0
  6
Continuous
 62
     7
100
AcDbCircle
 10
5813.6431109891
 20
4153.5852838382
 30
0.0
 40
5.0
  0
CIRCLE
  5
E5
330
1F
100
AcDbEntity
  8
0
  6
Continuous
 62
     7
100
AcDbCircle
 10
5813.6431109891
 20
4139.5852838382
 30
0.0
 40
5.0
  0
CIRCLE
  5
E6
330
1F
100
AcDbEntity
  8
0
  6
Continuous
 62
     7
100
AcDbCircle
 10
5801.5187553361
 20
4132.5852838382
 30
0.0
 40
5.0
  0
CIRCLE
  5
E7
330
1F
100
AcDbEntity
  8
0
  6
Continuous
 62
     7
100
AcDbCircle
 10
5789.3943996831
 20
4139.5852838382
 30
0.0
 40
5.000000000000909
  0
CIRCLE
  5
E8
330
1F
100
AcDbEntity
  8
0
  6
Continuous
 62
     7
100
AcDbCircle
 10
5789.3943996831
 20
4153.5852838382
 30
0.0
 40
5.0
  0
ARC
  5
E9
330
1F
100
AcDbEntity
  8
0
  6
Continuous
 62
     7
100
AcDbCircle
 10
5801.5187553361
 20
4146.5852838382
 30
0.0
 40
14.50000000000136
100
AcDbArc
 50
249.8908583977
 51
290.1091416023
  0
ARC
  5
EA
330
1F
100
AcDbEntity
  8
0
  6
Continuous
 62
     7
100
AcDbCircle
 10
5801.5187667588
 20
4146.5853186571
 30
0.0
 40
16.33403069561543
100
AcDbArc
 50
326.6129257652
 51
333.3868042559
  0
ARC
  5
EB
330
1F
100
AcDbEntity
  8
0
  6
Continuous
 62
     7
100
AcDbCircle
 10
5801.5187553361
 20
4146.5852838382
 30
0.0
 40
14.49999999999776
100
AcDbArc
 50
9.890858395
 51
50.1091416052
  0
ARC
  5
EC
330
1F
100
AcDbEntity
  8
0
  6
Continuous
 62
     7
100
AcDbCircle
 10
5801.5187553361
 20
4146.5852838382
 30
0.0
 40
16.33403064828769
100
AcDbArc
 50
86.6130343847
 51
93.3869405696
  0
ARC
  5
ED
330
1F
100
AcDbEntity
  8
0
  6
Continuous
 62
     7
100
AcDbCircle
 10
5801.5187553361
 20
4146.5852838382
 30
0.0
 40
14.50000000000284
100
AcDbArc
 50
129.8908583965
 51
170.1091416035
  0
ARC
  5
EE
330
1F
100
AcDbEntity
  8
0
  6
Continuous
 62
     7
100
AcDbCircle
 10
5801.518626756
 20
4146.5855072728
 30
0.0
 40
16.33403069561492
100
AcDbArc
 50
206.6139357688
 51
213.3878666216
  0
LINE
  5
EF
330
1F
100
AcDbEntity
  8
0
  6
Continuous
 62
     7
100
AcDbLine
 10
6899.0187553361
 20
5622.4490113816
 30
0.0
 11
6897.0187810853
 21
5622.4490113816
 31
0.0
  0
LINE
  5
F0
330
1F
100
AcDbEntity
  8
0
  6
Continuous
 62
     7
100
AcDbLine
 10
5651.0187295869
 20
5622.4490113816
 30
0.0
 11
5649.0187553361
 21
5622.4490113816
 31
0.0
  0
LINE
  5
F1
330
1F
100
AcDbEntity
  8
0
  6
Continuous
 62
     7
100
AcDbLine
 10
6897.0187810853
 20
5622.4490113816
 30
0.0
 11
5651.0187295869
 21
5622.4490113816
 31
0.0
  0
LINE
  5
F2
330
1F
100
AcDbEntity
  8
0
  6
Continuous
 62
     7
100
AcDbLine
 10
5785.5187562898
 20
4952.9657967648
 30
0.0
 11
5785.5187562898
 21
4951.4498718343
 31
0.0
  0
LINE
  5
F3
330
1F
100
AcDbEntity
  8
0
  6
Continuous
 62
     7
100
AcDbLine
 10
5785.5187562898
 20
4937.4498732648
 30
0.0
 11
5785.5187562898
 21
4934.949875649
 31
0.0
  0
LINE
  5
F4
330
1F
100
AcDbEntity
  8
0
  6
Continuous
 62
     7
100
AcDbLine
 10
5817.518761535
 20
4934.949875649
 30
0.0
 11
5817.518761535
 21
4937.4498732648
 31
0.0
  0
LINE
  5
F5
330
1F
100
AcDbEntity
  8
0
  6
Continuous
 62
     7
100
AcDbLine
 10
5817.518761535
 20
4951.4498718343
 30
0.0
 11
5817.518761535
 21
4952.9657967648
 31
0.0
  0
LINE
  5
F6
330
1F
100
AcDbEntity
  8
0
  6
Continuous
 62
     7
100
AcDbLine
 10
5767.5187496141
 20
4874.9498732648
 30
0.0
 11
5774.4125334218
 21
4807.6442189774
 31
0.0
  0
LINE
  5
F7
330
1F
100
AcDbEntity
  8
0
  6
Continuous
 62
     7
100
AcDbLine
 10
5828.6249844029
 20
4807.6442189774
 30
0.0
 11
5835.5187682107
 21
4874.9498732648
 31
0.0
  0
LINE
  5
F8
330
1F
100
AcDbEntity
  8
0
  6
Continuous
 62
     7
100
AcDbLine
 10
5835.5187682107
 20
4874.9498732648
 30
0.0
 11
5828.8282064393
 21
4932.2975285611
 31
0.0
  0
LINE
  5
F9
330
1F
100
AcDbEntity
  8
0
  6
Continuous
 62
     7
100
AcDbLine
 10
5774.2093113854
 20
4932.2975285611
 30
0.0
 11
5767.5187496141
 21
4874.9498732648
 31
0.0
  0
LINE
  5
FA
330
1F
100
AcDbEntity
  8
0
  6
Continuous
 62
     7
100
AcDbLine
 10
5826.5187648728
 20
4937.4498732648
 30
0.0
 11
5824.5187608197
 21
4941.449881371
 31
0.0
  0
LINE
  5
FB
330
1F
100
AcDbEntity
  8
0
  6
Continuous
 62
     7
100
AcDbLine
 10
5778.518757005
 20
4941.449881371
 30
0.0
 11
5776.5187529519
 21
4937.4498732648
 31
0.0
  0
LINE
  5
FC
330
1F
100
AcDbEntity
  8
0
  6
Continuous
 62
     7
100
AcDbLine
 10
5778.518757005
 20
4948.4498806558
 30
0.0
 11
5778.518757005
 21
4941.449881371
 31
0.0
  0
LINE
  5
FD
330
1F
100
AcDbEntity
  8
0
  6
Continuous
 62
     7
100
AcDbLine
 10
5824.5187608197
 20
4941.449881371
 30
0.0
 11
5824.5187608197
 21
4948.4498806558
 31
0.0
  0
LINE
  5
FE
330
1F
100
AcDbEntity
  8
0
  6
Continuous
 62
     7
100
AcDbLine
 10
5785.5187562898
 20
4937.4498732648
 30
0.0
 11
5785.5187562898
 21
4934.949875649
 31
0.0
  0
LINE
  5
FF
330
1F
100
AcDbEntity
  8
0
  6
Continuous
 62
     7
100
AcDbLine
 10
5817.518761535
 20
4934.949875649
 30
0.0
 11
5817.518761535
 21
4937.4498732648
 31
0.0
  0
LINE
  5
100
330
1F
100
AcDbEntity
  8
0
  6
Continuous
 62
     7
100
AcDbLine
 10
5972.4281040624
 20
5499.0564592442
 30
0.0
 11
5972.5187627271
 21
5498.9658005795
 31
0.0
  0
LINE
  5
101
330
1F
100
AcDbEntity
  8
0
  6
Continuous
 62
     7
100
AcDbLine
 10
5975.5187539056
 20
5498.9658005795
 30
0.0
 11
5975.6094125703
 21
5499.0564592442
 31
0.0
  0
LINE
  5
102
330
1F
100
AcDbEntity
  8
0
  6
Continuous
 62
     7
100
AcDbLine
 10
6572.4280981019
 20
5499.0564592442
 30
0.0
 11
6572.5187567666
 21
5498.9658005795
 31
0.0
  0
LINE
  5
103
330
1F
100
AcDbEntity
  8
0
  6
Continuous
 62
     7
100
AcDbLine
 10
6575.5187479451
 20
5498.9658005795
 30
0.0
 11
6575.6094066098
 21
5499.0564592442
 31
0.0
  0
LINE
  5
104
330
1F
100
AcDbEntity
  8
0
  6
Continuous
 62
     7
100
AcDbLine
 10
6564.7687522367
 20
5504.8066087327
 30
0.0
 11
6564.7687522367
 21
5504.2029030881
 31
0.0
  0
LINE
  5
105
330
1F
100
AcDbEntity
  8
0
  6
Continuous
 62
     7
100
AcDbLine
 10
6583.2687524751
 20
5504.2029030881
 30
0.0
 11
6583.2687524751
 21
5504.8066087327
 31
0.0
  0
LINE
  5
106
330
1F
100
AcDbEntity
  8
0
  6
Continuous
 62
     7
100
AcDbLine
 10
6581.5187601045
 20
5505.168826159
 30
0.0
 11
6581.5187601045
 21
5505.3693957887
 31
0.0
  0
LINE
  5
107
330
1F
100
AcDbEntity
  8
0
  6
Continuous
 62
     7
100
AcDbLine
 10
6566.5187446073
 20
5505.8655150494
 30
0.0
 11
6566.5187446073
 21
5505.168826159
 31
0.0
  0
LINE
  5
108
330
1F
100
AcDbEntity
  8
0
  6
Continuous
 62
     7
100
AcDbLine
 10
5964.7687581971
 20
5504.8066087327
 30
0.0
 11
5964.7687581971
 21
5504.2029030881
 31
0.0
  0
LINE
  5
109
330
1F
100
AcDbEntity
  8
0
  6
Continuous
 62
     7
100
AcDbLine
 10
5983.2687584355
 20
5504.2029030881
 30
0.0
 11
5983.2687584355
 21
5504.8066087327
 31
0.0
  0
LINE
  5
10A
330
1F
100
AcDbEntity
  8
0
  6
Continuous
 62
     7
100
AcDbLine
 10
5981.5187660649
 20
5505.168826159
 30
0.0
 11
5981.5187660649
 21
5505.3693957887
 31
0.0
  0
LINE
  5
10B
330
1F
100
AcDbEntity
  8
0
  6
Continuous
 62
     7
100
AcDbLine
 10
5966.5187505677
 20
5505.8655150494
 30
0.0
 11
5966.5187505677
 21
5505.168826159
 31
0.0
  0
LINE
  5
10C
330
1F
100
AcDbEntity
  8
0
  6
Continuous
 62
     7
100
AcDbLine
 10
6575.6687430337
 20
5499.0609295926
 30
0.0
 11
6575.6687430337
 21
5499.063373383
 31
0.0
  0
LINE
  5
10D
330
1F
100
AcDbEntity
  8
0
  6
Continuous
 62
     7
100
AcDbLine
 10
5975.6687489942
 20
5499.0609295926
 30
0.0
 11
5975.6687489942
 21
5499.063373383
 31
0.0
  0
LINE
  5
10E
330
1F
100
AcDbEntity
  8
0
  6
Continuous
 62
     7
100
AcDbLine
 10
6852.3687628701
 20
5176.3057958594
 30
0.0
 11
5695.6687478021
 21
5176.3057958594
 31
0.0
  0
LINE
  5
10F
330
1F
100
AcDbEntity
  8
0
  6
Continuous
 62
     7
100
AcDbLine
 10
6852.3687628701
 20
5177.9557958505
 30
0.0
 11
5695.6687478021
 21
5177.9557958505
 31
0.0
  0
LINE
  5
110
330
1F
100
AcDbEntity
  8
0
  6
Continuous
 62
     7
100
AcDbLine
 10
5695.6687478021
 20
5176.3057958594
 30
0.0
 11
5695.6687478021
 21
5177.9557958505
 31
0.0
  0
LINE
  5
111
330
1F
100
AcDbEntity
  8
0
  6
Continuous
 62
     7
100
AcDbLine
 10
6852.3687628701
 20
5176.3057958594
 30
0.0
 11
6852.3687628701
 21
5177.9557958505
 31
0.0
  0
LINE
  5
112
330
1F
100
AcDbEntity
  8
0
  6
Continuous
 62
     7
100
AcDbLine
 10
6852.3687628701
 20
4954.6158023438
 30
0.0
 11
5695.6687478021
 21
4954.6158023438
 31
0.0
  0
LINE
  5
113
330
1F
100
AcDbEntity
  8
0
  6
Continuous
 62
     7
100
AcDbLine
 10
5695.6687478021
 20
4954.6158023438
 30
0.0
 11
5695.6687478021
 21
5176.3057958594
 31
0.0
  0
LINE
  5
114
330
1F
100
AcDbEntity
  8
0
  6
Continuous
 62
     7
100
AcDbLine
 10
6852.3687628701
 20
4954.6158023438
 30
0.0
 11
6852.3687628701
 21
5176.3057958594
 31
0.0
  0
LINE
  5
115
330
1F
100
AcDbEntity
  8
0
  6
Continuous
 62
     7
100
AcDbLine
 10
6854.0187386468
 20
4954.6158023438
 30
0.0
 11
6854.0187386468
 21
5176.3057958594
 31
0.0
  0
LINE
  5
116
330
1F
100
AcDbEntity
  8
0
  6
Continuous
 62
     7
100
AcDbLine
 10
6854.0187386468
 20
4954.6158023438
 30
0.0
 11
6852.3687628701
 21
4954.6158023438
 31
0.0
  0
LINE
  5
117
330
1F
100
AcDbEntity
  8
0
  6
Continuous
 62
     7
100
AcDbLine
 10
6852.3687628701
 20
5176.3057958594
 30
0.0
 11
6854.0187386468
 21
5176.3057958594
 31
0.0
  0
LINE
  5
118
330
1F
100
AcDbEntity
  8
0
  6
Continuous
 62
     7
100
AcDbLine
 10
6852.3687628701
 20
4952.9657967648
 30
0.0
 11
5695.6687478021
 21
4952.9657967648
 31
0.0
  0
LINE
  5
119
330
1F
100
AcDbEntity
  8
0
  6
Continuous
 62
     7
100
AcDbLine
 10
6852.3687628701
 20
4952.9657967648
 30
0.0
 11
6852.3687628701
 21
4954.6158023438
 31
0.0
  0
LINE
  5
11A
330
1F
100
AcDbEntity
  8
0
  6
Continuous
 62
     7
100
AcDbLine
 10
5695.6687478021
 20
4952.9657967648
 30
0.0
 11
5695.6687478021
 21
4954.6158023438
 31
0.0
  0
LINE
  5
11B
330
1F
100
AcDbEntity
  8
0
  6
Continuous
 62
     7
100
AcDbLine
 10
5694.0187720254
 20
4954.6158023438
 30
0.0
 11
5694.0187720254
 21
5176.3057958594
 31
0.0
  0
LINE
  5
11C
330
1F
100
AcDbEntity
  8
0
  6
Continuous
 62
     7
100
AcDbLine
 10
5694.0187720254
 20
5176.3057958594
 30
0.0
 11
5695.6687478021
 21
5176.3057958594
 31
0.0
  0
LINE
  5
11D
330
1F
100
AcDbEntity
  8
0
  6
Continuous
 62
     7
100
AcDbLine
 10
5695.6687478021
 20
4954.6158023438
 30
0.0
 11
5694.0187720254
 21
4954.6158023438
 31
0.0
  0
LINE
  5
11E
330
1F
100
AcDbEntity
  8
0
  6
Continuous
 62
     7
100
AcDbLine
 10
6899.0187553361
 20
4952.9657967648
 30
0.0
 11
6899.0187553361
 21
5177.9557958505
 31
0.0
  0
LINE
  5
11F
330
1F
100
AcDbEntity
  8
0
  6
Continuous
 62
     7
100
AcDbLine
 10
6895.918777366
 20
4952.9657967648
 30
0.0
 11
6899.0187553361
 21
4952.9657967648
 31
0.0
  0
LINE
  5
120
330
1F
100
AcDbEntity
  8
0
  6
Continuous
 62
     7
100
AcDbLine
 10
6895.918777366
 20
4952.9657967648
 30
0.0
 11
6895.918777366
 21
5177.9557958505
 31
0.0
  0
LINE
  5
121
330
1F
100
AcDbEntity
  8
0
  6
Continuous
 62
     7
100
AcDbLine
 10
6899.0187553361
 20
5177.9557958505
 30
0.0
 11
6895.918777366
 21
5177.9557958505
 31
0.0
  0
LINE
  5
122
330
1F
100
AcDbEntity
  8
0
  6
Continuous
 62
     7
100
AcDbLine
 10
6857.1187762216
 20
4952.9657967648
 30
0.0
 11
6895.918777366
 21
4952.9657967648
 31
0.0
  0
LINE
  5
123
330
1F
100
AcDbEntity
  8
0
  6
Continuous
 62
     7
100
AcDbLine
 10
6857.1187762216
 20
4952.9657967648
 30
0.0
 11
6857.1187762216
 21
5177.9557958505
 31
0.0
  0
LINE
  5
124
330
1F
100
AcDbEntity
  8
0
  6
Continuous
 62
     7
100
AcDbLine
 10
6895.918777366
 20
5177.9557958505
 30
0.0
 11
6857.1187762216
 21
5177.9557958505
 31
0.0
  0
LINE
  5
125
330
1F
100
AcDbEntity
  8
0
  6
Continuous
 62
     7
100
AcDbLine
 10
6854.0187386468
 20
5177.9557958505
 30
0.0
 11
6857.1187762216
 21
5177.9557958505
 31
0.0
  0
LINE
  5
126
330
1F
100
AcDbEntity
  8
0
  6
Continuous
 62
     7
100
AcDbLine
 10
6857.1187762216
 20
4952.9657967648
 30
0.0
 11
6854.0187386468
 21
4952.9657967648
 31
0.0
  0
LINE
  5
127
330
1F
100
AcDbEntity
  8
0
  6
Continuous
 62
     7
100
AcDbLine
 10
6854.0187386468
 20
4952.9657967648
 30
0.0
 11
6854.0187386468
 21
4954.6158023438
 31
0.0
  0
LINE
  5
128
330
1F
100
AcDbEntity
  8
0
  6
Continuous
 62
     7
100
AcDbLine
 10
6854.0187386468
 20
5176.3057958594
 30
0.0
 11
6854.0187386468
 21
5177.9557958505
 31
0.0
  0
LINE
  5
129
330
1F
100
AcDbEntity
  8
0
  6
Continuous
 62
     7
100
AcDbLine
 10
6899.0187553361
 20
5200.7657967768
 30
0.0
 11
6897.0187810853
 21
5200.7657967768
 31
0.0
  0
LINE
  5
12A
330
1F
100
AcDbEntity
  8
0
  6
Continuous
 62
     7
100
AcDbLine
 10
6899.0187553361
 20
5200.7657967768
 30
0.0
 11
6899.0187553361
 21
5177.9657963923
 31
0.0
  0
LINE
  5
12B
330
1F
100
AcDbEntity
  8
0
  6
Continuous
 62
     7
100
AcDbLine
 10
6899.0187553361
 20
5177.9657963923
 30
0.0
 11
6897.0187810853
 21
5177.9657963923
 31
0.0
  0
LINE
  5
12C
330
1F
100
AcDbEntity
  8
0
  6
Continuous
 62
     7
100
AcDbLine
 10
6897.0187810853
 20
5200.7657967768
 30
0.0
 11
6897.0187810853
 21
5177.9657963923
 31
0.0
  0
LINE
  5
12D
330
1F
100
AcDbEntity
  8
0
  6
Continuous
 62
     7
100
AcDbLine
 10
6899.0187553361
 20
5202.9657967648
 30
0.0
 11
6897.0187810853
 21
5202.9657967648
 31
0.0
  0
LINE
  5
12E
330
1F
100
AcDbEntity
  8
0
  6
Continuous
 62
     7
100
AcDbLine
 10
6899.0187553361
 20
5202.9657967648
 30
0.0
 11
6899.0187553361
 21
5200.7657967768
 31
0.0
  0
LINE
  5
12F
330
1F
100
AcDbEntity
  8
0
  6
Continuous
 62
     7
100
AcDbLine
 10
6897.0187810853
 20
5202.9657967648
 30
0.0
 11
6897.0187810853
 21
5200.7657967768
 31
0.0
  0
LINE
  5
130
330
1F
100
AcDbEntity
  8
0
  6
Continuous
 62
     7
100
AcDbLine
 10
6899.0187553361
 20
5177.9657963923
 30
0.0
 11
6899.0187553361
 21
5177.9557958505
 31
0.0
  0
LINE
  5
131
330
1F
100
AcDbEntity
  8
0
  6
Continuous
 62
     7
100
AcDbLine
 10
6897.0187810853
 20
5177.9657963923
 30
0.0
 11
6897.0187810853
 21
5177.9557958505
 31
0.0
  0
LINE
  5
132
330
1F
100
AcDbEntity
  8
0
  6
Continuous
 62
     7
100
AcDbLine
 10
6899.0187553361
 20
5610.5564542375
 30
0.0
 11
6897.0187810853
 21
5610.5564542375
 31
0.0
  0
LINE
  5
133
330
1F
100
AcDbEntity
  8
0
  6
Continuous
 62
     7
100
AcDbLine
 10
6899.0187553361
 20
5610.5564542375
 30
0.0
 11
6899.0187553361
 21
5202.9657967648
 31
0.0
  0
LINE
  5
134
330
1F
100
AcDbEntity
  8
0
  6
Continuous
 62
     7
100
AcDbLine
 10
6897.0187810853
 20
5610.5564542375
 30
0.0
 11
6897.0187810853
 21
5202.9657967648
 31
0.0
  0
LINE
  5
135
330
1F
100
AcDbEntity
  8
0
  6
Continuous
 62
     7
100
AcDbLine
 10
6899.0187553361
 20
5612.7083607278
 30
0.0
 11
6897.0187810853
 21
5612.7083607278
 31
0.0
  0
LINE
  5
136
330
1F
100
AcDbEntity
  8
0
  6
Continuous
 62
     7
100
AcDbLine
 10
6899.0187553361
 20
5612.7083607278
 30
0.0
 11
6899.0187553361
 21
5610.5564542375
 31
0.0
  0
LINE
  5
137
330
1F
100
AcDbEntity
  8
0
  6
Continuous
 62
     7
100
AcDbLine
 10
6897.0187810853
 20
5612.7083607278
 30
0.0
 11
6897.0187810853
 21
5610.5564542375
 31
0.0
  0
LINE
  5
138
330
1F
100
AcDbEntity
  8
0
  6
Continuous
 62
     7
100
AcDbLine
 10
6899.0187553361
 20
5622.4009402356
 30
0.0
 11
6897.0187810853
 21
5622.4009402356
 31
0.0
  0
LINE
  5
139
330
1F
100
AcDbEntity
  8
0
  6
Continuous
 62
     7
100
AcDbLine
 10
6899.0187553361
 20
5622.4009402356
 30
0.0
 11
6899.0187553361
 21
5612.7083607278
 31
0.0
  0
LINE
  5
13A
330
1F
100
AcDbEntity
  8
0
  6
Continuous
 62
     7
100
AcDbLine
 10
6897.0187810853
 20
5622.4009402356
 30
0.0
 11
6897.0187810853
 21
5612.7083607278
 31
0.0
  0
LINE
  5
13B
330
1F
100
AcDbEntity
  8
0
  6
Continuous
 62
     7
100
AcDbLine
 10
6899.0187553361
 20
5622.4490113816
 30
0.0
 11
6899.0187553361
 21
5622.4009402356
 31
0.0
  0
LINE
  5
13C
330
1F
100
AcDbEntity
  8
0
  6
Continuous
 62
     7
100
AcDbLine
 10
6897.0187810853
 20
5622.4490113816
 30
0.0
 11
6897.0187810853
 21
5622.4009402356
 31
0.0
  0
LINE
  5
13D
330
1F
100
AcDbEntity
  8
0
  6
Continuous
 62
     7
100
AcDbLine
 10
5652.1187333062
 20
4952.9657967648
 30
0.0
 11
5652.1187333062
 21
5177.9557958505
 31
0.0
  0
LINE
  5
13E
330
1F
100
AcDbEntity
  8
0
  6
Continuous
 62
     7
100
AcDbLine
 10
5652.1187333062
 20
4952.9657967648
 30
0.0
 11
5649.0187553361
 21
4952.9657967648
 31
0.0
  0
LINE
  5
13F
330
1F
100
AcDbEntity
  8
0
  6
Continuous
 62
     7
100
AcDbLine
 10
5649.0187553361
 20
4952.9657967648
 30
0.0
 11
5649.0187553361
 21
5177.9557958505
 31
0.0
  0
LINE
  5
140
330
1F
100
AcDbEntity
  8
0
  6
Continuous
 62
     7
100
AcDbLine
 10
5649.0187553361
 20
5177.9557958505
 30
0.0
 11
5652.1187333062
 21
5177.9557958505
 31
0.0
  0
LINE
  5
141
330
1F
100
AcDbEntity
  8
0
  6
Continuous
 62
     7
100
AcDbLine
 10
5690.9187344506
 20
4952.9657967648
 30
0.0
 11
5690.9187344506
 21
5177.9557958505
 31
0.0
  0
LINE
  5
142
330
1F
100
AcDbEntity
  8
0
  6
Continuous
 62
     7
100
AcDbLine
 10
5690.9187344506
 20
4952.9657967648
 30
0.0
 11
5652.1187333062
 21
4952.9657967648
 31
0.0
  0
LINE
  5
143
330
1F
100
AcDbEntity
  8
0
  6
Continuous
 62
     7
100
AcDbLine
 10
5652.1187333062
 20
5177.9557958505
 30
0.0
 11
5690.9187344506
 21
5177.9557958505
 31
0.0
  0
LINE
  5
144
330
1F
100
AcDbEntity
  8
0
  6
Continuous
 62
     7
100
AcDbLine
 10
5690.9187344506
 20
4952.9657967648
 30
0.0
 11
5694.0187720254
 21
4952.9657967648
 31
0.0
  0
LINE
  5
145
330
1F
100
AcDbEntity
  8
0
  6
Continuous
 62
     7
100
AcDbLine
 10
5694.0187720254
 20
5177.9557958505
 30
0.0
 11
5690.9187344506
 21
5177.9557958505
 31
0.0
  0
LINE
  5
146
330
1F
100
AcDbEntity
  8
0
  6
Continuous
 62
     7
100
AcDbLine
 10
5694.0187720254
 20
4952.9657967648
 30
0.0
 11
5694.0187720254
 21
4954.6158023438
 31
0.0
  0
LINE
  5
147
330
1F
100
AcDbEntity
  8
0
  6
Continuous
 62
     7
100
AcDbLine
 10
5694.0187720254
 20
5176.3057958594
 30
0.0
 11
5694.0187720254
 21
5177.9557958505
 31
0.0
  0
LINE
  5
148
330
1F
100
AcDbEntity
  8
0
  6
Continuous
 62
     7
100
AcDbLine
 10
5649.0187553361
 20
5200.7657967768
 30
0.0
 11
5651.0187295869
 21
5200.7657967768
 31
0.0
  0
LINE
  5
149
330
1F
100
AcDbEntity
  8
0
  6
Continuous
 62
     7
100
AcDbLine
 10
5649.0187553361
 20
5202.9657967648
 30
0.0
 11
5649.0187553361
 21
5200.7657967768
 31
0.0
  0
LINE
  5
14A
330
1F
100
AcDbEntity
  8
0
  6
Continuous
 62
     7
100
AcDbLine
 10
5649.0187553361
 20
5202.9657967648
 30
0.0
 11
5651.0187295869
 21
5202.9657967648
 31
0.0
  0
LINE
  5
14B
330
1F
100
AcDbEntity
  8
0
  6
Continuous
 62
     7
100
AcDbLine
 10
5651.0187295869
 20
5202.9657967648
 30
0.0
 11
5651.0187295869
 21
5200.7657967768
 31
0.0
  0
LINE
  5
14C
330
1F
100
AcDbEntity
  8
0
  6
Continuous
 62
     7
100
AcDbLine
 10
5649.0187553361
 20
5177.9657963923
 30
0.0
 11
5651.0187295869
 21
5177.9657963923
 31
0.0
  0
LINE
  5
14D
330
1F
100
AcDbEntity
  8
0
  6
Continuous
 62
     7
100
AcDbLine
 10
5649.0187553361
 20
5200.7657967768
 30
0.0
 11
5649.0187553361
 21
5177.9657963923
 31
0.0
  0
LINE
  5
14E
330
1F
100
AcDbEntity
  8
0
  6
Continuous
 62
     7
100
AcDbLine
 10
5651.0187295869
 20
5200.7657967768
 30
0.0
 11
5651.0187295869
 21
5177.9657963923
 31
0.0
  0
LINE
  5
14F
330
1F
100
AcDbEntity
  8
0
  6
Continuous
 62
     7
100
AcDbLine
 10
5649.0187553361
 20
5177.9657963923
 30
0.0
 11
5649.0187553361
 21
5177.9557958505
 31
0.0
  0
LINE
  5
150
330
1F
100
AcDbEntity
  8
0
  6
Continuous
 62
     7
100
AcDbLine
 10
5651.0187295869
 20
5177.9657963923
 30
0.0
 11
5651.0187295869
 21
5177.9557958505
 31
0.0
  0
LINE
  5
151
330
1F
100
AcDbEntity
  8
0
  6
Continuous
 62
     7
100
AcDbLine
 10
5649.0187553361
 20
5610.5564542375
 30
0.0
 11
5651.0187295869
 21
5610.5564542375
 31
0.0
  0
LINE
  5
152
330
1F
100
AcDbEntity
  8
0
  6
Continuous
 62
     7
100
AcDbLine
 10
5649.0187553361
 20
5612.7083607278
 30
0.0
 11
5651.0187295869
 21
5612.7083607278
 31
0.0
  0
LINE
  5
153
330
1F
100
AcDbEntity
  8
0
  6
Continuous
 62
     7
100
AcDbLine
 10
5649.0187553361
 20
5612.7083607278
 30
0.0
 11
5649.0187553361
 21
5610.5564542375
 31
0.0
  0
LINE
  5
154
330
1F
100
AcDbEntity
  8
0
  6
Continuous
 62
     7
100
AcDbLine
 10
5651.0187295869
 20
5612.7083607278
 30
0.0
 11
5651.0187295869
 21
5610.5564542375
 31
0.0
  0
LINE
  5
155
330
1F
100
AcDbEntity
  8
0
  6
Continuous
 62
     7
100
AcDbLine
 10
5649.0187553361
 20
5610.5564542375
 30
0.0
 11
5649.0187553361
 21
5202.9657967648
 31
0.0
  0
LINE
  5
156
330
1F
100
AcDbEntity
  8
0
  6
Continuous
 62
     7
100
AcDbLine
 10
5651.0187295869
 20
5610.5564542375
 30
0.0
 11
5651.0187295869
 21
5202.9657967648
 31
0.0
  0
LINE
  5
157
330
1F
100
AcDbEntity
  8
0
  6
Continuous
 62
     7
100
AcDbLine
 10
5649.0187553361
 20
5622.4009402356
 30
0.0
 11
5651.0187295869
 21
5622.4009402356
 31
0.0
  0
LINE
  5
158
330
1F
100
AcDbEntity
  8
0
  6
Continuous
 62
     7
100
AcDbLine
 10
5649.0187553361
 20
5622.4009402356
 30
0.0
 11
5649.0187553361
 21
5612.7083607278
 31
0.0
  0
LINE
  5
159
330
1F
100
AcDbEntity
  8
0
  6
Continuous
 62
     7
100
AcDbLine
 10
5651.0187295869
 20
5622.4009402356
 30
0.0
 11
5651.0187295869
 21
5612.7083607278
 31
0.0
  0
LINE
  5
15A
330
1F
100
AcDbEntity
  8
0
  6
Continuous
 62
     7
100
AcDbLine
 10
5649.0187553361
 20
5622.4490113816
 30
0.0
 11
5649.0187553361
 21
5622.4009402356
 31
0.0
  0
LINE
  5
15B
330
1F
100
AcDbEntity
  8
0
  6
Continuous
 62
     7
100
AcDbLine
 10
5651.0187295869
 20
5622.4490113816
 30
0.0
 11
5651.0187295869
 21
5622.4009402356
 31
0.0
  0
LINE
  5
15C
330
1F
100
AcDbEntity
  8
0
  6
Continuous
 62
     7
100
AcDbLine
 10
5651.0187295869
 20
5200.7657967768
 30
0.0
 11
6897.0187810853
 21
5200.7657967768
 31
0.0
  0
LINE
  5
15D
330
1F
100
AcDbEntity
  8
0
  6
Continuous
 62
     7
100
AcDbLine
 10
5651.0187295869
 20
5177.9657963923
 30
0.0
 11
6897.0187810853
 21
5177.9657963923
 31
0.0
  0
LINE
  5
15E
330
1F
100
AcDbEntity
  8
0
  6
Continuous
 62
     7
100
AcDbLine
 10
6897.0187810853
 20
5202.9657967648
 30
0.0
 11
5651.0187295869
 21
5202.9657967648
 31
0.0
  0
LINE
  5
15F
330
1F
100
AcDbEntity
  8
0
  6
Continuous
 62
     7
100
AcDbLine
 10
5651.0187295869
 20
5610.5564542375
 30
0.0
 11
6897.0187810853
 21
5610.5564542375
 31
0.0
  0
LINE
  5
160
330
1F
100
AcDbEntity
  8
0
  6
Continuous
 62
     7
100
AcDbLine
 10
6897.0187810853
 20
5612.7083607278
 30
0.0
 11
5651.0187295869
 21
5612.7083607278
 31
0.0
  0
LINE
  5
161
330
1F
100
AcDbEntity
  8
0
  6
Continuous
 62
     7
100
AcDbLine
 10
5651.0187295869
 20
5622.4009402356
 30
0.0
 11
6897.0187810853
 21
5622.4009402356
 31
0.0
  0
LINE
  5
162
330
1F
100
AcDbEntity
  8
0
  6
Continuous
 62
     7
100
AcDbLine
 10
5767.5187496141
 20
4874.9498732648
 30
0.0
 11
5835.5187682107
 21
4874.9498732648
 31
0.0
  0
LINE
  5
163
330
1F
100
AcDbEntity
  8
0
  6
Continuous
 62
     7
100
AcDbLine
 10
5777.1890965894
 20
4934.949875649
 30
0.0
 11
5825.8484212354
 21
4934.949875649
 31
0.0
  0
LINE
  5
164
330
1F
100
AcDbEntity
  8
0
  6
Continuous
 62
     7
100
AcDbLine
 10
5777.3969379857
 20
4804.9498804173
 30
0.0
 11
5825.640579839
 21
4804.9498804173
 31
0.0
  0
LINE
  5
165
330
1F
100
AcDbEntity
  8
0
  6
Continuous
 62
     7
100
AcDbLine
 10
5778.518757005
 20
4941.449881371
 30
0.0
 11
5824.5187608197
 21
4941.449881371
 31
0.0
  0
LINE
  5
166
330
1F
100
AcDbEntity
  8
0
  6
Continuous
 62
     7
100
AcDbLine
 10
5776.5187529519
 20
4937.4498732648
 30
0.0
 11
5826.5187648728
 21
4937.4498732648
 31
0.0
  0
LINE
  5
167
330
1F
100
AcDbEntity
  8
0
  6
Continuous
 62
     7
100
AcDbLine
 10
5781.5187481835
 20
4951.4498718343
 30
0.0
 11
5821.5187696412
 21
4951.4498718343
 31
0.0
  0
LINE
  5
168
330
1F
100
AcDbEntity
  8
0
  6
Continuous
 62
     7
100
AcDbLine
 10
5818.0187550977
 20
4934.949875649
 30
0.0
 11
5817.518761535
 21
4935.3161461911
 31
0.0
  0
LINE
  5
169
330
1F
100
AcDbEntity
  8
0
  6
Continuous
 62
     7
100
AcDbLine
 10
5785.5187562898
 20
4935.3161461911
 30
0.0
 11
5785.0187627271
 21
4934.949875649
 31
0.0
  0
LINE
  5
16A
330
1F
100
AcDbEntity
  8
0
  6
Continuous
 62
     7
100
AcDbLine
 10
5981.5687445596
 20
5316.9657968244
 30
0.0
 11
5966.4687422708
 21
5316.9657968244
 31
0.0
  0
LINE
  5
16B
330
1F
100
AcDbEntity
  8
0
  6
Continuous
 62
     7
100
AcDbLine
 10
5981.5687445596
 20
5306.3657962046
 30
0.0
 11
5966.4687422708
 21
5306.3657962046
 31
0.0
  0
LINE
  5
16C
330
1F
100
AcDbEntity
  8
0
  6
Continuous
 62
     7
100
AcDbLine
 10
6581.5687684014
 20
5316.9657968244
 30
0.0
 11
6566.4687661126
 21
5316.9657968244
 31
0.0
  0
LINE
  5
16D
330
1F
100
AcDbEntity
  8
0
  6
Continuous
 62
     7
100
AcDbLine
 10
6581.5687684014
 20
5306.3657962046
 30
0.0
 11
6566.4687661126
 21
5306.3657962046
 31
0.0
  0
LINE
  5
16E
330
1F
100
AcDbEntity
  8
0
  6
Continuous
 62
     7
100
AcDbLine
 10
5981.5187660649
 20
5317.2657944522
 30
0.0
 11
5966.5187505677
 21
5317.2657944522
 31
0.0
  0
LINE
  5
16F
330
1F
100
AcDbEntity
  8
0
  6
Continuous
 62
     7
100
AcDbLine
 10
5966.5187505677
 20
5306.2657945118
 30
0.0
 11
5981.5187660649
 21
5306.2657945118
 31
0.0
  0
LINE
  5
170
330
1F
100
AcDbEntity
  8
0
  6
Continuous
 62
     7
100
AcDbLine
 10
6581.5187601045
 20
5317.2657944522
 30
0.0
 11
6566.5187446073
 21
5317.2657944522
 31
0.0
  0
LINE
  5
171
330
1F
100
AcDbEntity
  8
0
  6
Continuous
 62
     7
100
AcDbLine
 10
6566.5187446073
 20
5306.2657945118
 30
0.0
 11
6581.5187601045
 21
5306.2657945118
 31
0.0
  0
LINE
  5
172
330
1F
100
AcDbEntity
  8
0
  6
Continuous
 62
     7
100
AcDbLine
 10
5960.0187448457
 20
4952.8658099732
 30
0.0
 11
5960.0187448457
 21
4952.9657967648
 31
0.0
  0
LINE
  5
173
330
1F
100
AcDbEntity
  8
0
  6
Continuous
 62
     7
100
AcDbLine
 10
5988.0187419847
 20
4952.8658099732
 30
0.0
 11
5960.0187448457
 21
4952.8658099732
 31
0.0
  0
LINE
  5
174
330
1F
100
AcDbEntity
  8
0
  6
Continuous
 62
     7
100
AcDbLine
 10
5988.0187419847
 20
4952.8658099732
 30
0.0
 11
5988.0187419847
 21
4952.9657967648
 31
0.0
  0
LINE
  5
175
330
1F
100
AcDbEntity
  8
0
  6
Continuous
 62
     7
100
AcDbLine
 10
6588.0187658265
 20
4952.8658099732
 30
0.0
 11
6560.0187686875
 21
4952.8658099732
 31
0.0
  0
LINE
  5
176
330
1F
100
AcDbEntity
  8
0
  6
Continuous
 62
     7
100
AcDbLine
 10
6560.0187686875
 20
4952.8658099732
 30
0.0
 11
6560.0187686875
 21
4952.9657967648
 31
0.0
  0
LINE
  5
177
330
1F
100
AcDbEntity
  8
0
  6
Continuous
 62
     7
100
AcDbLine
 10
6588.0187658265
 20
4952.8658099732
 30
0.0
 11
6588.0187658265
 21
4952.9657967648
 31
0.0
  0
LINE
  5
178
330
1F
100
AcDbEntity
  8
0
  6
Continuous
 62
     7
100
AcDbLine
 10
5975.5187539056
 20
5498.9658005795
 30
0.0
 11
5972.5187627271
 21
5498.9658005795
 31
0.0
  0
LINE
  5
179
330
1F
100
AcDbEntity
  8
0
  6
Continuous
 62
     7
100
AcDbLine
 10
6575.5187479451
 20
5498.9658005795
 30
0.0
 11
6572.5187567666
 21
5498.9658005795
 31
0.0
  0
LINE
  5
17A
330
1F
100
AcDbEntity
  8
0
  6
Continuous
 62
     7
100
AcDbLine
 10
6580.7613042787
 20
5503.5298772416
 30
0.0
 11
6580.7613042787
 21
5502.5639541707
 31
0.0
  0
LINE
  5
17B
330
1F
100
AcDbEntity
  8
0
  6
Continuous
 62
     7
100
AcDbLine
 10
6583.2642225221
 20
5504.8816509805
 30
0.0
 11
6583.2642225221
 21
5504.2779453359
 31
0.0
  0
LINE
  5
17C
330
1F
100
AcDbEntity
  8
0
  6
Continuous
 62
     7
100
AcDbLine
 10
6582.1760503247
 20
5505.6433685384
 30
0.0
 11
6582.1760503247
 21
5505.3316958508
 31
0.0
  0
LINE
  5
17D
330
1F
100
AcDbEntity
  8
0
  6
Continuous
 62
     7
100
AcDbLine
 10
6580.3512541249
 20
5506.1640449128
 30
0.0
 11
6580.3512541249
 21
5505.9480078778
 31
0.0
  0
LINE
  5
17E
330
1F
100
AcDbEntity
  8
0
  6
Continuous
 62
     7
100
AcDbLine
 10
6576.7029134229
 20
5506.6625185571
 30
0.0
 11
6576.7029134229
 21
5506.493986424
 31
0.0
  0
LINE
  5
17F
330
1F
100
AcDbEntity
  8
0
  6
Continuous
 62
     7
100
AcDbLine
 10
6573.7288204625
 20
5506.7576475701
 30
0.0
 11
6573.7288204625
 21
5506.5958209596
 31
0.0
  0
LINE
  5
180
330
1F
100
AcDbEntity
  8
0
  6
Continuous
 62
     7
100
AcDbLine
 10
6569.6574357942
 20
5506.4959831796
 30
0.0
 11
6569.6574357942
 21
5506.314189013
 31
0.0
  0
LINE
  5
181
330
1F
100
AcDbEntity
  8
0
  6
Continuous
 62
     7
100
AcDbLine
 10
6567.2762302354
 20
5506.0702570043
 30
0.0
 11
6567.2762302354
 21
5505.8418818078
 31
0.0
  0
LINE
  5
182
330
1F
100
AcDbEntity
  8
0
  6
Continuous
 62
     7
100
AcDbLine
 10
6565.1667622521
 20
5505.3357489667
 30
0.0
 11
6565.1667622521
 21
5504.8976250253
 31
0.0
  0
LINE
  5
183
330
1F
100
AcDbEntity
  8
0
  6
Continuous
 62
     7
100
AcDbLine
 10
6565.861454387
 20
5504.0400333962
 30
0.0
 11
6565.861454387
 21
5503.0741103253
 31
0.0
  0
LINE
  5
184
330
1F
100
AcDbEntity
  8
0
  6
Continuous
 62
     7
100
AcDbLine
 10
6571.3345912889
 20
5502.8777726254
 30
0.0
 11
6571.3345912889
 21
5501.9118495545
 31
0.0
  0
LINE
  5
185
330
1F
100
AcDbEntity
  8
0
  6
Continuous
 62
     7
100
AcDbLine
 10
6567.4704221681
 20
5503.8700409493
 30
0.0
 11
6566.5701834157
 21
5504.2507954202
 31
0.0
  0
LINE
  5
186
330
1F
100
AcDbEntity
  8
0
  6
Continuous
 62
     7
100
AcDbLine
 10
6566.5701834157
 20
5504.2507954202
 30
0.0
 11
6565.9954754308
 21
5504.6716936192
 31
0.0
  0
LINE
  5
187
330
1F
100
AcDbEntity
  8
0
  6
Continuous
 62
     7
100
AcDbLine
 10
6565.9954754308
 20
5504.6716936192
 30
0.0
 11
6565.7714513734
 21
5505.114287909
 31
0.0
  0
LINE
  5
188
330
1F
100
AcDbEntity
  8
0
  6
Continuous
 62
     7
100
AcDbLine
 10
6565.7714513734
 20
5505.114287909
 30
0.0
 11
6565.907856603
 21
5505.5592961869
 31
0.0
  0
LINE
  5
189
330
1F
100
AcDbEntity
  8
0
  6
Continuous
 62
     7
100
AcDbLine
 10
6565.907856603
 20
5505.5592961869
 30
0.0
 11
6566.0352615312
 21
5505.7071753106
 31
0.0
  0
LINE
  5
18A
330
1F
100
AcDbEntity
  8
0
  6
Continuous
 62
     7
100
AcDbLine
 10
6582.1933952764
 20
5505.4567761979
 30
0.0
 11
6582.2660533383
 21
5505.2233942113
 31
0.0
  0
LINE
  5
18B
330
1F
100
AcDbEntity
  8
0
  6
Continuous
 62
     7
100
AcDbLine
 10
6582.2660533383
 20
5505.2233942113
 30
0.0
 11
6582.1296481088
 21
5504.7783859334
 31
0.0
  0
LINE
  5
18C
330
1F
100
AcDbEntity
  8
0
  6
Continuous
 62
     7
100
AcDbLine
 10
6582.1296481088
 20
5504.7783859334
 30
0.0
 11
6581.6387740567
 21
5504.3504543862
 31
0.0
  0
LINE
  5
18D
330
1F
100
AcDbEntity
  8
0
  6
Continuous
 62
     7
100
AcDbLine
 10
6581.6387740567
 20
5504.3504543862
 30
0.0
 11
6580.8148292497
 21
5503.9583154282
 31
0.0
  0
LINE
  5
18E
330
1F
100
AcDbEntity
  8
0
  6
Continuous
 62
     7
100
AcDbLine
 10
6580.8148292497
 20
5503.9583154282
 30
0.0
 11
6580.4615227178
 21
5503.8351424298
 31
0.0
  0
LINE
  5
18F
330
1F
100
AcDbEntity
  8
0
  6
Continuous
 62
     7
100
AcDbLine
 10
6567.79267468
 20
5503.7679083905
 30
0.0
 11
6567.4704221681
 21
5503.8700409493
 31
0.0
  0
LINE
  5
190
330
1F
100
AcDbEntity
  8
0
  6
Continuous
 62
     7
100
AcDbLine
 10
6582.7614871457
 20
5505.2610941491
 30
0.0
 11
6583.0233005479
 21
5505.2521236501
 31
0.0
  0
LINE
  5
191
330
1F
100
AcDbEntity
  8
0
  6
Continuous
 62
     7
100
AcDbLine
 10
6580.7613042787
 20
5503.5298772416
 30
0.0
 11
6580.452850242
 21
5503.6340363583
 31
0.0
  0
LINE
  5
192
330
1F
100
AcDbEntity
  8
0
  6
Continuous
 62
     7
100
AcDbLine
 10
6571.4011100724
 20
5503.007889565
 30
0.0
 11
6571.3345912889
 21
5502.8777726254
 31
0.0
  0
LINE
  5
193
330
1F
100
AcDbEntity
  8
0
  6
Continuous
 62
     7
100
AcDbLine
 10
6565.861454387
 20
5504.0400333962
 30
0.0
 11
6566.2639645532
 21
5504.1198738179
 31
0.0
  0
LINE
  5
194
330
1F
100
AcDbEntity
  8
0
  6
Continuous
 62
     7
100
AcDbLine
 10
6566.5187446073
 20
5505.2452095113
 30
0.0
 11
6565.9954754308
 21
5505.6376166902
 31
0.0
  0
LINE
  5
195
330
1F
100
AcDbEntity
  8
0
  6
Continuous
 62
     7
100
AcDbLine
 10
6565.9954754308
 20
5505.6376166902
 30
0.0
 11
6565.9584609464
 21
5505.6794889531
 31
0.0
  0
LINE
  5
196
330
1F
100
AcDbEntity
  8
0
  6
Continuous
 62
     7
100
AcDbLine
 10
6581.6384760335
 20
5505.3161986432
 30
0.0
 11
6581.5187601045
 21
5505.2452095113
 31
0.0
  0
LINE
  5
197
330
1F
100
AcDbEntity
  8
0
  6
Continuous
 62
     7
100
AcDbLine
 10
6576.6363946393
 20
5506.3638694844
 30
0.0
 11
6576.7029134229
 21
5506.493986424
 31
0.0
  0
LINE
  5
198
330
1F
100
AcDbEntity
  8
0
  6
Continuous
 62
     7
100
AcDbLine
 10
6573.6623016789
 20
5506.46570402
 30
0.0
 11
6573.7288204625
 21
5506.5958209596
 31
0.0
  0
LINE
  5
199
330
1F
100
AcDbEntity
  8
0
  6
Continuous
 62
     7
100
AcDbLine
 10
6568.0657235578
 20
5503.9881177506
 30
0.0
 11
6567.2242251828
 21
5504.3469377122
 31
0.0
  0
LINE
  5
19A
330
1F
100
AcDbEntity
  8
0
  6
Continuous
 62
     7
100
AcDbLine
 10
6567.2242251828
 20
5504.3469377122
 30
0.0
 11
6566.7004195645
 21
5504.7442026696
 31
0.0
  0
LINE
  5
19B
330
1F
100
AcDbEntity
  8
0
  6
Continuous
 62
     7
100
AcDbLine
 10
6566.7004195645
 20
5504.7442026696
 30
0.0
 11
6566.5188042119
 21
5505.1613159738
 31
0.0
  0
LINE
  5
19C
330
1F
100
AcDbEntity
  8
0
  6
Continuous
 62
     7
100
AcDbLine
 10
6566.5188042119
 20
5505.1613159738
 30
0.0
 11
6566.6879025891
 21
5505.5787571034
 31
0.0
  0
LINE
  5
19D
330
1F
100
AcDbEntity
  8
0
  6
Continuous
 62
     7
100
AcDbLine
 10
6566.6879025891
 20
5505.5787571034
 30
0.0
 11
6567.1997574761
 21
5505.9770651421
 31
0.0
  0
LINE
  5
19E
330
1F
100
AcDbEntity
  8
0
  6
Continuous
 62
     7
100
AcDbLine
 10
6567.1997574761
 20
5505.9770651421
 30
0.0
 11
6567.2762302354
 21
5506.0189374051
 31
0.0
  0
LINE
  5
19F
330
1F
100
AcDbEntity
  8
0
  6
Continuous
 62
     7
100
AcDbLine
 10
6581.4698246911
 20
5505.390227612
 30
0.0
 11
6581.4715830281
 21
5505.3862042985
 31
0.0
  0
LINE
  5
1A0
330
1F
100
AcDbEntity
  8
0
  6
Continuous
 62
     7
100
AcDbLine
 10
6581.4715830281
 20
5505.3862042985
 30
0.0
 11
6581.4778713182
 21
5504.96646839
 31
0.0
  0
LINE
  5
1A1
330
1F
100
AcDbEntity
  8
0
  6
Continuous
 62
     7
100
AcDbLine
 10
6581.4778713182
 20
5504.96646839
 30
0.0
 11
6581.1353830293
 21
5504.5561798177
 31
0.0
  0
LINE
  5
1A2
330
1F
100
AcDbEntity
  8
0
  6
Continuous
 62
     7
100
AcDbLine
 10
6581.1353830293
 20
5504.5561798177
 30
0.0
 11
6580.4601518109
 21
5504.1745312772
 31
0.0
  0
LINE
  5
1A3
330
1F
100
AcDbEntity
  8
0
  6
Continuous
 62
     7
100
AcDbLine
 10
6580.4601518109
 20
5504.1745312772
 30
0.0
 11
6579.4837085202
 21
5503.8394041619
 31
0.0
  0
LINE
  5
1A4
330
1F
100
AcDbEntity
  8
0
  6
Continuous
 62
     7
100
AcDbLine
 10
6579.4837085202
 20
5503.8394041619
 30
0.0
 11
6578.251710315
 21
5503.5664148889
 31
0.0
  0
LINE
  5
1A5
330
1F
100
AcDbEntity
  8
0
  6
Continuous
 62
     7
100
AcDbLine
 10
6578.251710315
 20
5503.5664148889
 30
0.0
 11
6576.8218246892
 21
5503.3683784566
 31
0.0
  0
LINE
  5
1A6
330
1F
100
AcDbEntity
  8
0
  6
Continuous
 62
     7
100
AcDbLine
 10
6576.8218246892
 20
5503.3683784566
 30
0.0
 11
6575.2608386472
 21
5503.2545037827
 31
0.0
  0
LINE
  5
1A7
330
1F
100
AcDbEntity
  8
0
  6
Continuous
 62
     7
100
AcDbLine
 10
6575.2608386472
 20
5503.2545037827
 30
0.0
 11
6573.6417976811
 21
5503.2301552854
 31
0.0
  0
LINE
  5
1A8
330
1F
100
AcDbEntity
  8
0
  6
Continuous
 62
     7
100
AcDbLine
 10
6573.6417976811
 20
5503.2301552854
 30
0.0
 11
6572.0403698876
 21
5503.2964356503
 31
0.0
  0
LINE
  5
1A9
330
1F
100
AcDbEntity
  8
0
  6
Continuous
 62
     7
100
AcDbLine
 10
6572.0403698876
 20
5503.2964356503
 30
0.0
 11
6570.5314485028
 21
5503.4503050408
 31
0.0
  0
LINE
  5
1AA
330
1F
100
AcDbEntity
  8
0
  6
Continuous
 62
     7
100
AcDbLine
 10
6570.5314485028
 20
5503.4503050408
 30
0.0
 11
6569.1855756238
 21
5503.6845214925
 31
0.0
  0
LINE
  5
1AB
330
1F
100
AcDbEntity
  8
0
  6
Continuous
 62
     7
100
AcDbLine
 10
6569.1855756238
 20
5503.6845214925
 30
0.0
 11
6568.0657235578
 21
5503.9881177506
 31
0.0
  0
LINE
  5
1AC
330
1F
100
AcDbEntity
  8
0
  6
Continuous
 62
     7
100
AcDbLine
 10
6573.6623016789
 20
5506.757081326
 30
0.0
 11
6573.6623016789
 21
5506.46570402
 31
0.0
  0
LINE
  5
1AD
330
1F
100
AcDbEntity
  8
0
  6
Continuous
 62
     7
100
AcDbLine
 10
6569.6574357942
 20
5506.314189013
 30
0.0
 11
6569.9658898309
 21
5506.2100000939
 31
0.0
  0
LINE
  5
1AE
330
1F
100
AcDbEntity
  8
0
  6
Continuous
 62
     7
100
AcDbLine
 10
6567.2762302354
 20
5505.8418818078
 30
0.0
 11
6567.5846544698
 21
5505.7377226911
 31
0.0
  0
LINE
  5
1AF
330
1F
100
AcDbEntity
  8
0
  6
Continuous
 62
     7
100
AcDbLine
 10
6569.9658898309
 20
5506.5335639081
 30
0.0
 11
6569.9658898309
 21
5506.2100000939
 31
0.0
  0
LINE
  5
1B0
330
1F
100
AcDbEntity
  8
0
  6
Continuous
 62
     7
100
AcDbLine
 10
6580.3512541249
 20
5505.9480078778
 30
0.0
 11
6579.9487737611
 21
5505.8681674561
 31
0.0
  0
LINE
  5
1B1
330
1F
100
AcDbEntity
  8
0
  6
Continuous
 62
     7
100
AcDbLine
 10
6582.1760503247
 20
5505.3316958508
 30
0.0
 11
6581.7735401586
 21
5505.2518852315
 31
0.0
  0
LINE
  5
1B2
330
1F
100
AcDbEntity
  8
0
  6
Continuous
 62
     7
100
AcDbLine
 10
6579.9487737611
 20
5506.2465973458
 30
0.0
 11
6579.9487737611
 21
5505.8681674561
 31
0.0
  0
LINE
  5
1B3
330
1F
100
AcDbEntity
  8
0
  6
Continuous
 62
     7
100
AcDbLine
 10
6565.6694678262
 20
5505.5676706395
 30
0.0
 11
6565.6694678262
 21
5504.8803992829
 31
0.0
  0
LINE
  5
1B4
330
1F
100
AcDbEntity
  8
0
  6
Continuous
 62
     7
100
AcDbLine
 10
6565.6694678262
 20
5504.8803992829
 30
0.0
 11
6565.1667622521
 21
5504.8976250253
 31
0.0
  0
LINE
  5
1B5
330
1F
100
AcDbEntity
  8
0
  6
Continuous
 62
     7
100
AcDbLine
 10
6565.276017566
 20
5504.1106649003
 30
0.0
 11
6564.773311992
 21
5504.1278608403
 31
0.0
  0
LINE
  5
1B6
330
1F
100
AcDbEntity
  8
0
  6
Continuous
 62
     7
100
AcDbLine
 10
6565.276017566
 20
5504.2951710782
 30
0.0
 11
6565.276017566
 21
5504.1106649003
 31
0.0
  0
LINE
  5
1B7
330
1F
100
AcDbEntity
  8
0
  6
Continuous
 62
     7
100
AcDbLine
 10
6582.7614871457
 20
5505.2610941491
 30
0.0
 11
6582.7614871457
 21
5504.2951710782
 31
0.0
  0
LINE
  5
1B8
330
1F
100
AcDbEntity
  8
0
  6
Continuous
 62
     7
100
AcDbLine
 10
6582.7614871457
 20
5504.2951710782
 30
0.0
 11
6583.2642225221
 21
5504.2779453359
 31
0.0
  0
LINE
  5
1B9
330
1F
100
AcDbEntity
  8
0
  6
Continuous
 62
     7
100
AcDbLine
 10
6582.3680368856
 20
5503.5254068932
 30
0.0
 11
6582.8707424596
 21
5503.5082109532
 31
0.0
  0
LINE
  5
1BA
330
1F
100
AcDbEntity
  8
0
  6
Continuous
 62
     7
100
AcDbLine
 10
6582.3680368856
 20
5504.4913299642
 30
0.0
 11
6582.3680368856
 21
5503.5254068932
 31
0.0
  0
LINE
  5
1BB
330
1F
100
AcDbEntity
  8
0
  6
Continuous
 62
     7
100
AcDbLine
 10
6566.2639645532
 20
5504.1198738179
 30
0.0
 11
6566.2639645532
 21
5503.153950747
 31
0.0
  0
LINE
  5
1BC
330
1F
100
AcDbEntity
  8
0
  6
Continuous
 62
     7
100
AcDbLine
 10
6565.861454387
 20
5503.0741103253
 30
0.0
 11
6566.2639645532
 21
5503.153950747
 31
0.0
  0
LINE
  5
1BD
330
1F
100
AcDbEntity
  8
0
  6
Continuous
 62
     7
100
AcDbLine
 10
6567.6862505868
 20
5502.4578281007
 30
0.0
 11
6568.088760753
 21
5502.53763872
 31
0.0
  0
LINE
  5
1BE
330
1F
100
AcDbEntity
  8
0
  6
Continuous
 62
     7
100
AcDbLine
 10
6568.088760753
 20
5503.5035617909
 30
0.0
 11
6568.088760753
 21
5502.53763872
 31
0.0
  0
LINE
  5
1BF
330
1F
100
AcDbEntity
  8
0
  6
Continuous
 62
     7
100
AcDbLine
 10
6580.452850242
 20
5503.6340363583
 30
0.0
 11
6580.452850242
 21
5502.6681132874
 31
0.0
  0
LINE
  5
1C0
330
1F
100
AcDbEntity
  8
0
  6
Continuous
 62
     7
100
AcDbLine
 10
6578.0716446832
 20
5503.1617589555
 30
0.0
 11
6578.0716446832
 21
5502.1958358846
 31
0.0
  0
LINE
  5
1C1
330
1F
100
AcDbEntity
  8
0
  6
Continuous
 62
     7
100
AcDbLine
 10
6580.7613042787
 20
5502.5639541707
 30
0.0
 11
6580.452850242
 21
5502.6681132874
 31
0.0
  0
LINE
  5
1C2
330
1F
100
AcDbEntity
  8
0
  6
Continuous
 62
     7
100
AcDbLine
 10
6578.3800689176
 20
5502.0916469655
 30
0.0
 11
6578.0716446832
 21
5502.1958358846
 31
0.0
  0
LINE
  5
1C3
330
1F
100
AcDbEntity
  8
0
  6
Continuous
 62
     7
100
AcDbLine
 10
6571.4011100724
 20
5503.007889565
 30
0.0
 11
6571.4011100724
 21
5502.0419664941
 31
0.0
  0
LINE
  5
1C4
330
1F
100
AcDbEntity
  8
0
  6
Continuous
 62
     7
100
AcDbLine
 10
6574.3752030328
 20
5502.9060550294
 30
0.0
 11
6574.3752030328
 21
5501.9401319585
 31
0.0
  0
LINE
  5
1C5
330
1F
100
AcDbEntity
  8
0
  6
Continuous
 62
     7
100
AcDbLine
 10
6571.4011100724
 20
5502.0419664941
 30
0.0
 11
6571.3345912889
 21
5501.9118495545
 31
0.0
  0
LINE
  5
1C6
330
1F
100
AcDbEntity
  8
0
  6
Continuous
 62
     7
100
AcDbLine
 10
6574.3752030328
 20
5501.9401319585
 30
0.0
 11
6574.3086842492
 21
5501.8100150189
 31
0.0
  0
LINE
  5
1C7
330
1F
100
AcDbEntity
  8
0
  6
Continuous
 62
     7
100
AcDbLine
 10
5980.7612804368
 20
5503.5298772416
 30
0.0
 11
5980.7612804368
 21
5502.5639541707
 31
0.0
  0
LINE
  5
1C8
330
1F
100
AcDbEntity
  8
0
  6
Continuous
 62
     7
100
AcDbLine
 10
5983.2641986802
 20
5504.8816509805
 30
0.0
 11
5983.2641986802
 21
5504.2779453359
 31
0.0
  0
LINE
  5
1C9
330
1F
100
AcDbEntity
  8
0
  6
Continuous
 62
     7
100
AcDbLine
 10
5982.1760562852
 20
5505.6433685384
 30
0.0
 11
5982.1760562852
 21
5505.3316958508
 31
0.0
  0
LINE
  5
1CA
330
1F
100
AcDbEntity
  8
0
  6
Continuous
 62
     7
100
AcDbLine
 10
5980.3512600854
 20
5506.1640449128
 30
0.0
 11
5980.3512600854
 21
5505.9480078778
 31
0.0
  0
LINE
  5
1CB
330
1F
100
AcDbEntity
  8
0
  6
Continuous
 62
     7
100
AcDbLine
 10
5976.7029193833
 20
5506.6625185571
 30
0.0
 11
5976.7029193833
 21
5506.493986424
 31
0.0
  0
LINE
  5
1CC
330
1F
100
AcDbEntity
  8
0
  6
Continuous
 62
     7
100
AcDbLine
 10
5973.728826423
 20
5506.7576475701
 30
0.0
 11
5973.728826423
 21
5506.5958209596
 31
0.0
  0
LINE
  5
1CD
330
1F
100
AcDbEntity
  8
0
  6
Continuous
 62
     7
100
AcDbLine
 10
5969.6574417546
 20
5506.4959831796
 30
0.0
 11
5969.6574417546
 21
5506.314189013
 31
0.0
  0
LINE
  5
1CE
330
1F
100
AcDbEntity
  8
0
  6
Continuous
 62
     7
100
AcDbLine
 10
5967.2762063935
 20
5506.0702570043
 30
0.0
 11
5967.2762063935
 21
5505.8418818078
 31
0.0
  0
LINE
  5
1CF
330
1F
100
AcDbEntity
  8
0
  6
Continuous
 62
     7
100
AcDbLine
 10
5965.1667682126
 20
5505.3357489667
 30
0.0
 11
5965.1667682126
 21
5504.8976250253
 31
0.0
  0
LINE
  5
1D0
330
1F
100
AcDbEntity
  8
0
  6
Continuous
 62
     7
100
AcDbLine
 10
5965.8614603475
 20
5504.0400333962
 30
0.0
 11
5965.8614603475
 21
5503.0741103253
 31
0.0
  0
LINE
  5
1D1
330
1F
100
AcDbEntity
  8
0
  6
Continuous
 62
     7
100
AcDbLine
 10
5971.3345972493
 20
5502.8777726254
 30
0.0
 11
5971.3345972493
 21
5501.9118495545
 31
0.0
  0
LINE
  5
1D2
330
1F
100
AcDbEntity
  8
0
  6
Continuous
 62
     7
100
AcDbLine
 10
5967.4704281285
 20
5503.8700409493
 30
0.0
 11
5966.5701893762
 21
5504.2507954202
 31
0.0
  0
LINE
  5
1D3
330
1F
100
AcDbEntity
  8
0
  6
Continuous
 62
     7
100
AcDbLine
 10
5966.5701893762
 20
5504.2507954202
 30
0.0
 11
5965.9954813912
 21
5504.6716936192
 31
0.0
  0
LINE
  5
1D4
330
1F
100
AcDbEntity
  8
0
  6
Continuous
 62
     7
100
AcDbLine
 10
5965.9954813912
 20
5504.6716936192
 30
0.0
 11
5965.7714573339
 21
5505.114287909
 31
0.0
  0
LINE
  5
1D5
330
1F
100
AcDbEntity
  8
0
  6
Continuous
 62
     7
100
AcDbLine
 10
5965.7714573339
 20
5505.114287909
 30
0.0
 11
5965.9078625634
 21
5505.5592961869
 31
0.0
  0
LINE
  5
1D6
330
1F
100
AcDbEntity
  8
0
  6
Continuous
 62
     7
100
AcDbLine
 10
5965.9078625634
 20
5505.5592961869
 30
0.0
 11
5966.0352376893
 21
5505.7071753106
 31
0.0
  0
LINE
  5
1D7
330
1F
100
AcDbEntity
  8
0
  6
Continuous
 62
     7
100
AcDbLine
 10
5982.1934012368
 20
5505.4567761979
 30
0.0
 11
5982.2660592988
 21
5505.2233942113
 31
0.0
  0
LINE
  5
1D8
330
1F
100
AcDbEntity
  8
0
  6
Continuous
 62
     7
100
AcDbLine
 10
5982.2660592988
 20
5505.2233942113
 30
0.0
 11
5982.1296540692
 21
5504.7783859334
 31
0.0
  0
LINE
  5
1D9
330
1F
100
AcDbEntity
  8
0
  6
Continuous
 62
     7
100
AcDbLine
 10
5982.1296540692
 20
5504.7783859334
 30
0.0
 11
5981.6387502149
 21
5504.3504543862
 31
0.0
  0
LINE
  5
1DA
330
1F
100
AcDbEntity
  8
0
  6
Continuous
 62
     7
100
AcDbLine
 10
5981.6387502149
 20
5504.3504543862
 30
0.0
 11
5980.8148352101
 21
5503.9583154282
 31
0.0
  0
LINE
  5
1DB
330
1F
100
AcDbEntity
  8
0
  6
Continuous
 62
     7
100
AcDbLine
 10
5980.8148352101
 20
5503.9583154282
 30
0.0
 11
5979.6938804582
 21
5503.6190457902
 31
0.0
  0
LINE
  5
1DC
330
1F
100
AcDbEntity
  8
0
  6
Continuous
 62
     7
100
AcDbLine
 10
5979.6938804582
 20
5503.6190457902
 30
0.0
 11
5978.3249107793
 21
5503.3475168309
 31
0.0
  0
LINE
  5
1DD
330
1F
100
AcDbEntity
  8
0
  6
Continuous
 62
     7
100
AcDbLine
 10
5978.3249107793
 20
5503.3475168309
 30
0.0
 11
5976.7677394345
 21
5503.1556196771
 31
0.0
  0
LINE
  5
1DE
330
1F
100
AcDbEntity
  8
0
  6
Continuous
 62
     7
100
AcDbLine
 10
5976.7677394345
 20
5503.1556196771
 30
0.0
 11
5975.0904349282
 21
5503.0516691766
 31
0.0
  0
LINE
  5
1DF
330
1F
100
AcDbEntity
  8
0
  6
Continuous
 62
     7
100
AcDbLine
 10
5975.0904349282
 20
5503.0516691766
 30
0.0
 11
5973.3662513688
 21
5503.0402846894
 31
0.0
  0
LINE
  5
1E0
330
1F
100
AcDbEntity
  8
0
  6
Continuous
 62
     7
100
AcDbLine
 10
5973.3662513688
 20
5503.0402846894
 30
0.0
 11
5971.6706184342
 21
5503.1218834481
 31
0.0
  0
LINE
  5
1E1
330
1F
100
AcDbEntity
  8
0
  6
Continuous
 62
     7
100
AcDbLine
 10
5971.6706184342
 20
5503.1218834481
 30
0.0
 11
5970.077624698
 21
5503.2929785809
 31
0.0
  0
LINE
  5
1E2
330
1F
100
AcDbEntity
  8
0
  6
Continuous
 62
     7
100
AcDbLine
 10
5970.077624698
 20
5503.2929785809
 30
0.0
 11
5968.6568287805
 21
5503.5460599027
 31
0.0
  0
LINE
  5
1E3
330
1F
100
AcDbEntity
  8
0
  6
Continuous
 62
     7
100
AcDbLine
 10
5968.6568287805
 20
5503.5460599027
 30
0.0
 11
5967.4704281285
 21
5503.8700409493
 31
0.0
  0
LINE
  5
1E4
330
1F
100
AcDbEntity
  8
0
  6
Continuous
 62
     7
100
AcDbLine
 10
5982.7614931062
 20
5505.2610941491
 30
0.0
 11
5983.0233065084
 21
5505.2521236501
 31
0.0
  0
LINE
  5
1E5
330
1F
100
AcDbEntity
  8
0
  6
Continuous
 62
     7
100
AcDbLine
 10
5980.7612804368
 20
5503.5298772416
 30
0.0
 11
5980.4528562024
 21
5503.6340363583
 31
0.0
  0
LINE
  5
1E6
330
1F
100
AcDbEntity
  8
0
  6
Continuous
 62
     7
100
AcDbLine
 10
5971.4011160329
 20
5503.007889565
 30
0.0
 11
5971.3345972493
 21
5502.8777726254
 31
0.0
  0
LINE
  5
1E7
330
1F
100
AcDbEntity
  8
0
  6
Continuous
 62
     7
100
AcDbLine
 10
5965.8614603475
 20
5504.0400333962
 30
0.0
 11
5966.2639705136
 21
5504.1198738179
 31
0.0
  0
LINE
  5
1E8
330
1F
100
AcDbEntity
  8
0
  6
Continuous
 62
     7
100
AcDbLine
 10
5966.5187505677
 20
5505.2452095113
 30
0.0
 11
5965.9954813912
 21
5505.6376166902
 31
0.0
  0
LINE
  5
1E9
330
1F
100
AcDbEntity
  8
0
  6
Continuous
 62
     7
100
AcDbLine
 10
5965.9954813912
 20
5505.6376166902
 30
0.0
 11
5965.9584669068
 21
5505.6794889531
 31
0.0
  0
LINE
  5
1EA
330
1F
100
AcDbEntity
  8
0
  6
Continuous
 62
     7
100
AcDbLine
 10
5981.638481994
 20
5505.3161986432
 30
0.0
 11
5981.5187660649
 21
5505.2452095113
 31
0.0
  0
LINE
  5
1EB
330
1F
100
AcDbEntity
  8
0
  6
Continuous
 62
     7
100
AcDbLine
 10
5976.6364005998
 20
5506.3638694844
 30
0.0
 11
5976.7029193833
 21
5506.493986424
 31
0.0
  0
LINE
  5
1EC
330
1F
100
AcDbEntity
  8
0
  6
Continuous
 62
     7
100
AcDbLine
 10
5973.6623076394
 20
5506.46570402
 30
0.0
 11
5973.728826423
 21
5506.5958209596
 31
0.0
  0
LINE
  5
1ED
330
1F
100
AcDbEntity
  8
0
  6
Continuous
 62
     7
100
AcDbLine
 10
5968.0657295182
 20
5503.9881177506
 30
0.0
 11
5967.224201341
 21
5504.3469377122
 31
0.0
  0
LINE
  5
1EE
330
1F
100
AcDbEntity
  8
0
  6
Continuous
 62
     7
100
AcDbLine
 10
5967.224201341
 20
5504.3469377122
 30
0.0
 11
5966.700425525
 21
5504.7442026696
 31
0.0
  0
LINE
  5
1EF
330
1F
100
AcDbEntity
  8
0
  6
Continuous
 62
     7
100
AcDbLine
 10
5966.700425525
 20
5504.7442026696
 30
0.0
 11
5966.5188101724
 21
5505.1613159738
 31
0.0
  0
LINE
  5
1F0
330
1F
100
AcDbEntity
  8
0
  6
Continuous
 62
     7
100
AcDbLine
 10
5966.5188101724
 20
5505.1613159738
 30
0.0
 11
5966.6879085496
 21
5505.5787571034
 31
0.0
  0
LINE
  5
1F1
330
1F
100
AcDbEntity
  8
0
  6
Continuous
 62
     7
100
AcDbLine
 10
5966.6879085496
 20
5505.5787571034
 30
0.0
 11
5967.1997634366
 21
5505.9770651421
 31
0.0
  0
LINE
  5
1F2
330
1F
100
AcDbEntity
  8
0
  6
Continuous
 62
     7
100
AcDbLine
 10
5967.1997634366
 20
5505.9770651421
 30
0.0
 11
5967.2762063935
 21
5506.0189374051
 31
0.0
  0
LINE
  5
1F3
330
1F
100
AcDbEntity
  8
0
  6
Continuous
 62
     7
100
AcDbLine
 10
5981.4698306516
 20
5505.390227612
 30
0.0
 11
5981.4715889886
 21
5505.3862042985
 31
0.0
  0
LINE
  5
1F4
330
1F
100
AcDbEntity
  8
0
  6
Continuous
 62
     7
100
AcDbLine
 10
5981.4715889886
 20
5505.3862042985
 30
0.0
 11
5981.4778772786
 21
5504.96646839
 31
0.0
  0
LINE
  5
1F5
330
1F
100
AcDbEntity
  8
0
  6
Continuous
 62
     7
100
AcDbLine
 10
5981.4778772786
 20
5504.96646839
 30
0.0
 11
5981.1353889897
 21
5504.5561798177
 31
0.0
  0
LINE
  5
1F6
330
1F
100
AcDbEntity
  8
0
  6
Continuous
 62
     7
100
AcDbLine
 10
5981.1353889897
 20
5504.5561798177
 30
0.0
 11
5980.4601577714
 21
5504.1745312772
 31
0.0
  0
LINE
  5
1F7
330
1F
100
AcDbEntity
  8
0
  6
Continuous
 62
     7
100
AcDbLine
 10
5980.4601577714
 20
5504.1745312772
 30
0.0
 11
5979.4836846784
 21
5503.8394041619
 31
0.0
  0
LINE
  5
1F8
330
1F
100
AcDbEntity
  8
0
  6
Continuous
 62
     7
100
AcDbLine
 10
5979.4836846784
 20
5503.8394041619
 30
0.0
 11
5978.2517162755
 21
5503.5664148889
 31
0.0
  0
LINE
  5
1F9
330
1F
100
AcDbEntity
  8
0
  6
Continuous
 62
     7
100
AcDbLine
 10
5978.2517162755
 20
5503.5664148889
 30
0.0
 11
5976.8218008473
 21
5503.3683784566
 31
0.0
  0
LINE
  5
1FA
330
1F
100
AcDbEntity
  8
0
  6
Continuous
 62
     7
100
AcDbLine
 10
5976.8218008473
 20
5503.3683784566
 30
0.0
 11
5975.2608446076
 21
5503.2545037827
 31
0.0
  0
LINE
  5
1FB
330
1F
100
AcDbEntity
  8
0
  6
Continuous
 62
     7
100
AcDbLine
 10
5975.2608446076
 20
5503.2545037827
 30
0.0
 11
5973.6417738393
 21
5503.2301552854
 31
0.0
  0
LINE
  5
1FC
330
1F
100
AcDbEntity
  8
0
  6
Continuous
 62
     7
100
AcDbLine
 10
5973.6417738393
 20
5503.2301552854
 30
0.0
 11
5972.0403460458
 21
5503.2964356503
 31
0.0
  0
LINE
  5
1FD
330
1F
100
AcDbEntity
  8
0
  6
Continuous
 62
     7
100
AcDbLine
 10
5972.0403460458
 20
5503.2964356503
 30
0.0
 11
5970.531424661
 21
5503.4503050408
 31
0.0
  0
LINE
  5
1FE
330
1F
100
AcDbEntity
  8
0
  6
Continuous
 62
     7
100
AcDbLine
 10
5970.531424661
 20
5503.4503050408
 30
0.0
 11
5969.1855815843
 21
5503.6845214925
 31
0.0
  0
LINE
  5
1FF
330
1F
100
AcDbEntity
  8
0
  6
Continuous
 62
     7
100
AcDbLine
 10
5969.1855815843
 20
5503.6845214925
 30
0.0
 11
5968.0657295182
 21
5503.9881177506
 31
0.0
  0
LINE
  5
200
330
1F
100
AcDbEntity
  8
0
  6
Continuous
 62
     7
100
AcDbLine
 10
5973.6623076394
 20
5506.757081326
 30
0.0
 11
5973.6623076394
 21
5506.46570402
 31
0.0
  0
LINE
  5
201
330
1F
100
AcDbEntity
  8
0
  6
Continuous
 62
     7
100
AcDbLine
 10
5969.6574417546
 20
5506.314189013
 30
0.0
 11
5969.965865989
 21
5506.2100000939
 31
0.0
  0
LINE
  5
202
330
1F
100
AcDbEntity
  8
0
  6
Continuous
 62
     7
100
AcDbLine
 10
5967.2762063935
 20
5505.8418818078
 30
0.0
 11
5967.5846604302
 21
5505.7377226911
 31
0.0
  0
LINE
  5
203
330
1F
100
AcDbEntity
  8
0
  6
Continuous
 62
     7
100
AcDbLine
 10
5969.965865989
 20
5506.5335639081
 30
0.0
 11
5969.965865989
 21
5506.2100000939
 31
0.0
  0
LINE
  5
204
330
1F
100
AcDbEntity
  8
0
  6
Continuous
 62
     7
100
AcDbLine
 10
5980.3512600854
 20
5505.9480078778
 30
0.0
 11
5979.9487499192
 21
5505.8681674561
 31
0.0
  0
LINE
  5
205
330
1F
100
AcDbEntity
  8
0
  6
Continuous
 62
     7
100
AcDbLine
 10
5982.1760562852
 20
5505.3316958508
 30
0.0
 11
5981.773546119
 21
5505.2518852315
 31
0.0
  0
LINE
  5
206
330
1F
100
AcDbEntity
  8
0
  6
Continuous
 62
     7
100
AcDbLine
 10
5979.9487499192
 20
5506.2465973458
 30
0.0
 11
5979.9487499192
 21
5505.8681674561
 31
0.0
  0
LINE
  5
207
330
1F
100
AcDbEntity
  8
0
  6
Continuous
 62
     7
100
AcDbLine
 10
5965.6694737866
 20
5505.5676706395
 30
0.0
 11
5965.6694737866
 21
5504.8803992829
 31
0.0
  0
LINE
  5
208
330
1F
100
AcDbEntity
  8
0
  6
Continuous
 62
     7
100
AcDbLine
 10
5965.6694737866
 20
5504.8803992829
 30
0.0
 11
5965.1667682126
 21
5504.8976250253
 31
0.0
  0
LINE
  5
209
330
1F
100
AcDbEntity
  8
0
  6
Continuous
 62
     7
100
AcDbLine
 10
5965.2760235265
 20
5504.1106649003
 30
0.0
 11
5964.7732881501
 21
5504.1278608403
 31
0.0
  0
LINE
  5
20A
330
1F
100
AcDbEntity
  8
0
  6
Continuous
 62
     7
100
AcDbLine
 10
5965.2760235265
 20
5504.2951710782
 30
0.0
 11
5965.2760235265
 21
5504.1106649003
 31
0.0
  0
LINE
  5
20B
330
1F
100
AcDbEntity
  8
0
  6
Continuous
 62
     7
100
AcDbLine
 10
5982.7614931062
 20
5505.2610941491
 30
0.0
 11
5982.7614931062
 21
5504.2951710782
 31
0.0
  0
LINE
  5
20C
330
1F
100
AcDbEntity
  8
0
  6
Continuous
 62
     7
100
AcDbLine
 10
5982.7614931062
 20
5504.2951710782
 30
0.0
 11
5983.2641986802
 21
5504.2779453359
 31
0.0
  0
LINE
  5
20D
330
1F
100
AcDbEntity
  8
0
  6
Continuous
 62
     7
100
AcDbLine
 10
5982.368042846
 20
5503.5254068932
 30
0.0
 11
5982.8707484201
 21
5503.5082109532
 31
0.0
  0
LINE
  5
20E
330
1F
100
AcDbEntity
  8
0
  6
Continuous
 62
     7
100
AcDbLine
 10
5982.368042846
 20
5504.4913299642
 30
0.0
 11
5982.368042846
 21
5503.5254068932
 31
0.0
  0
LINE
  5
20F
330
1F
100
AcDbEntity
  8
0
  6
Continuous
 62
     7
100
AcDbLine
 10
5966.2639705136
 20
5504.1198738179
 30
0.0
 11
5966.2639705136
 21
5503.153950747
 31
0.0
  0
LINE
  5
210
330
1F
100
AcDbEntity
  8
0
  6
Continuous
 62
     7
100
AcDbLine
 10
5965.8614603475
 20
5503.0741103253
 30
0.0
 11
5966.2639705136
 21
5503.153950747
 31
0.0
  0
LINE
  5
211
330
1F
100
AcDbEntity
  8
0
  6
Continuous
 62
     7
100
AcDbLine
 10
5967.6862565473
 20
5502.4578281007
 30
0.0
 11
5968.0887369111
 21
5502.53763872
 31
0.0
  0
LINE
  5
212
330
1F
100
AcDbEntity
  8
0
  6
Continuous
 62
     7
100
AcDbLine
 10
5968.0887369111
 20
5503.5035617909
 30
0.0
 11
5968.0887369111
 21
5502.53763872
 31
0.0
  0
LINE
  5
213
330
1F
100
AcDbEntity
  8
0
  6
Continuous
 62
     7
100
AcDbLine
 10
5980.4528562024
 20
5503.6340363583
 30
0.0
 11
5980.4528562024
 21
5502.6681132874
 31
0.0
  0
LINE
  5
214
330
1F
100
AcDbEntity
  8
0
  6
Continuous
 62
     7
100
AcDbLine
 10
5980.7612804368
 20
5502.5639541707
 30
0.0
 11
5980.4528562024
 21
5502.6681132874
 31
0.0
  0
LINE
  5
215
330
1F
100
AcDbEntity
  8
0
  6
Continuous
 62
     7
100
AcDbLine
 10
5978.0716208413
 20
5503.1617589555
 30
0.0
 11
5978.0716208413
 21
5502.1958358846
 31
0.0
  0
LINE
  5
216
330
1F
100
AcDbEntity
  8
0
  6
Continuous
 62
     7
100
AcDbLine
 10
5978.380074878
 20
5502.0916469655
 30
0.0
 11
5978.0716208413
 21
5502.1958358846
 31
0.0
  0
LINE
  5
217
330
1F
100
AcDbEntity
  8
0
  6
Continuous
 62
     7
100
AcDbLine
 10
5971.4011160329
 20
5503.007889565
 30
0.0
 11
5971.4011160329
 21
5502.0419664941
 31
0.0
  0
LINE
  5
218
330
1F
100
AcDbEntity
  8
0
  6
Continuous
 62
     7
100
AcDbLine
 10
5974.3752089933
 20
5502.9060550294
 30
0.0
 11
5974.3752089933
 21
5501.9401319585
 31
0.0
  0
LINE
  5
219
330
1F
100
AcDbEntity
  8
0
  6
Continuous
 62
     7
100
AcDbLine
 10
5971.4011160329
 20
5502.0419664941
 30
0.0
 11
5971.3345972493
 21
5501.9118495545
 31
0.0
  0
LINE
  5
21A
330
1F
100
AcDbEntity
  8
0
  6
Continuous
 62
     7
100
AcDbLine
 10
5974.3752089933
 20
5501.9401319585
 30
0.0
 11
5974.3086902097
 21
5501.8100150189
 31
0.0
  0
LINE
  5
21B
330
1F
100
AcDbEntity
  8
0
  6
Continuous
 62
     7
100
AcDbLine
 10
6587.1370791066
 20
5508.0760702828
 30
0.0
 11
6586.1694423154
 21
5508.3440251908
 31
0.0
  0
LINE
  5
21C
330
1F
100
AcDbEntity
  8
0
  6
Continuous
 62
     7
100
AcDbLine
 10
6561.8680623963
 20
5508.3440251908
 30
0.0
 11
6560.9004259686
 21
5508.0760693075
 31
0.0
  0
LINE
  5
21D
330
1F
100
AcDbEntity
  8
0
  6
Continuous
 62
     7
100
AcDbLine
 10
6561.8680623963
 20
5508.3440251908
 30
0.0
 11
6586.1694423154
 21
5508.3440251908
 31
0.0
  0
LINE
  5
21E
330
1F
100
AcDbEntity
  8
0
  6
Continuous
 62
     7
100
AcDbLine
 10
6574.018767257
 20
5506.7587502561
 30
0.0
 11
6575.8876112893
 21
5506.7125566564
 31
0.0
  0
LINE
  5
21F
330
1F
100
AcDbEntity
  8
0
  6
Continuous
 62
     7
100
AcDbLine
 10
6575.8876112893
 20
5506.7125566564
 30
0.0
 11
6577.6889232591
 21
5506.5756745896
 31
0.0
  0
LINE
  5
220
330
1F
100
AcDbEntity
  8
0
  6
Continuous
 62
     7
100
AcDbLine
 10
6577.6889232591
 20
5506.5756745896
 30
0.0
 11
6579.3575850919
 21
5506.3530214391
 31
0.0
  0
LINE
  5
221
330
1F
100
AcDbEntity
  8
0
  6
Continuous
 62
     7
100
AcDbLine
 10
6579.3575850919
 20
5506.3530214391
 30
0.0
 11
6580.8332768872
 21
5506.052673634
 31
0.0
  0
LINE
  5
222
330
1F
100
AcDbEntity
  8
0
  6
Continuous
 62
     7
100
AcDbLine
 10
6580.8332768872
 20
5506.052673634
 30
0.0
 11
6582.0626822904
 21
5505.6854494176
 31
0.0
  0
LINE
  5
223
330
1F
100
AcDbEntity
  8
0
  6
Continuous
 62
     7
100
AcDbLine
 10
6582.0626822904
 20
5505.6854494176
 30
0.0
 11
6583.0013660386
 21
5505.2646406255
 31
0.0
  0
LINE
  5
224
330
1F
100
AcDbEntity
  8
0
  6
Continuous
 62
     7
100
AcDbLine
 10
6583.0013660386
 20
5505.2646406255
 30
0.0
 11
6583.6153832868
 21
5504.8054762444
 31
0.0
  0
LINE
  5
225
330
1F
100
AcDbEntity
  8
0
  6
Continuous
 62
     7
100
AcDbLine
 10
6583.6153832868
 20
5504.8054762444
 30
0.0
 11
6583.882561107
 21
5504.3245263657
 31
0.0
  0
LINE
  5
226
330
1F
100
AcDbEntity
  8
0
  6
Continuous
 62
     7
100
AcDbLine
 10
6583.882561107
 20
5504.3245263657
 30
0.0
 11
6583.7932435468
 21
5503.8391657433
 31
0.0
  0
LINE
  5
227
330
1F
100
AcDbEntity
  8
0
  6
Continuous
 62
     7
100
AcDbLine
 10
6583.7932435468
 20
5503.8391657433
 30
0.0
 11
6583.350649257
 21
5503.3669777474
 31
0.0
  0
LINE
  5
228
330
1F
100
AcDbEntity
  8
0
  6
Continuous
 62
     7
100
AcDbLine
 10
6583.350649257
 20
5503.3669777474
 30
0.0
 11
6582.5707522824
 21
5502.9250093064
 31
0.0
  0
LINE
  5
229
330
1F
100
AcDbEntity
  8
0
  6
Continuous
 62
     7
100
AcDbLine
 10
6582.5707522824
 20
5502.9250093064
 30
0.0
 11
6581.4817754224
 21
5502.5292046628
 31
0.0
  0
LINE
  5
22A
330
1F
100
AcDbEntity
  8
0
  6
Continuous
 62
     7
100
AcDbLine
 10
6581.4817754224
 20
5502.5292046628
 30
0.0
 11
6580.1230875447
 21
5502.1938987336
 31
0.0
  0
LINE
  5
22B
330
1F
100
AcDbEntity
  8
0
  6
Continuous
 62
     7
100
AcDbLine
 10
6580.1230875447
 20
5502.1938987336
 30
0.0
 11
6578.5437432721
 21
5501.9311912618
 31
0.0
  0
LINE
  5
22C
330
1F
100
AcDbEntity
  8
0
  6
Continuous
 62
     7
100
AcDbLine
 10
6578.5437432721
 20
5501.9311912618
 30
0.0
 11
6576.8008736566
 21
5501.7506189904
 31
0.0
  0
LINE
  5
22D
330
1F
100
AcDbEntity
  8
0
  6
Continuous
 62
     7
100
AcDbLine
 10
6576.8008736566
 20
5501.7506189904
 30
0.0
 11
6574.957421203
 21
5501.6586490235
 31
0.0
  0
LINE
  5
22E
330
1F
100
AcDbEntity
  8
0
  6
Continuous
 62
     7
100
AcDbLine
 10
6574.957421203
 20
5501.6586490235
 30
0.0
 11
6573.0800835088
 21
5501.6586490235
 31
0.0
  0
LINE
  5
22F
330
1F
100
AcDbEntity
  8
0
  6
Continuous
 62
     7
100
AcDbLine
 10
6573.0800835088
 20
5501.6586490235
 30
0.0
 11
6571.2366608575
 21
5501.7506189904
 31
0.0
  0
LINE
  5
230
330
1F
100
AcDbEntity
  8
0
  6
Continuous
 62
     7
100
AcDbLine
 10
6571.2366608575
 20
5501.7506189904
 30
0.0
 11
6569.4937614396
 21
5501.9311912618
 31
0.0
  0
LINE
  5
231
330
1F
100
AcDbEntity
  8
0
  6
Continuous
 62
     7
100
AcDbLine
 10
6569.4937614396
 20
5501.9311912618
 30
0.0
 11
6567.9144469693
 21
5502.1938987336
 31
0.0
  0
LINE
  5
232
330
1F
100
AcDbEntity
  8
0
  6
Continuous
 62
     7
100
AcDbLine
 10
6567.9144469693
 20
5502.1938987336
 30
0.0
 11
6566.5557292893
 21
5502.5292046628
 31
0.0
  0
LINE
  5
233
330
1F
100
AcDbEntity
  8
0
  6
Continuous
 62
     7
100
AcDbLine
 10
6566.5557292893
 20
5502.5292046628
 30
0.0
 11
6565.4667524293
 21
5502.9250093064
 31
0.0
  0
LINE
  5
234
330
1F
100
AcDbEntity
  8
0
  6
Continuous
 62
     7
100
AcDbLine
 10
6565.4667524293
 20
5502.9250093064
 30
0.0
 11
6564.6868852571
 21
5503.3669777474
 31
0.0
  0
LINE
  5
235
330
1F
100
AcDbEntity
  8
0
  6
Continuous
 62
     7
100
AcDbLine
 10
6564.6868852571
 20
5503.3669777474
 30
0.0
 11
6564.244261165
 21
5503.8391657433
 31
0.0
  0
LINE
  5
236
330
1F
100
AcDbEntity
  8
0
  6
Continuous
 62
     7
100
AcDbLine
 10
6564.244261165
 20
5503.8391657433
 30
0.0
 11
6564.1549436048
 21
5504.3245263657
 31
0.0
  0
LINE
  5
237
330
1F
100
AcDbEntity
  8
0
  6
Continuous
 62
     7
100
AcDbLine
 10
6564.1549436048
 20
5504.3245263657
 30
0.0
 11
6564.422121425
 21
5504.8054762444
 31
0.0
  0
LINE
  5
238
330
1F
100
AcDbEntity
  8
0
  6
Continuous
 62
     7
100
AcDbLine
 10
6564.422121425
 20
5504.8054762444
 30
0.0
 11
6565.0361386731
 21
5505.2646406255
 31
0.0
  0
LINE
  5
239
330
1F
100
AcDbEntity
  8
0
  6
Continuous
 62
     7
100
AcDbLine
 10
6565.0361386731
 20
5505.2646406255
 30
0.0
 11
6565.9748224214
 21
5505.6854494176
 31
0.0
  0
LINE
  5
23A
330
1F
100
AcDbEntity
  8
0
  6
Continuous
 62
     7
100
AcDbLine
 10
6565.9748224214
 20
5505.6854494176
 30
0.0
 11
6567.2042278245
 21
5506.052673634
 31
0.0
  0
LINE
  5
23B
330
1F
100
AcDbEntity
  8
0
  6
Continuous
 62
     7
100
AcDbLine
 10
6567.2042278245
 20
5506.052673634
 30
0.0
 11
6568.6799196199
 21
5506.3530214391
 31
0.0
  0
LINE
  5
23C
330
1F
100
AcDbEntity
  8
0
  6
Continuous
 62
     7
100
AcDbLine
 10
6568.6799196199
 20
5506.3530214391
 30
0.0
 11
6570.3485814527
 21
5506.5756745896
 31
0.0
  0
LINE
  5
23D
330
1F
100
AcDbEntity
  8
0
  6
Continuous
 62
     7
100
AcDbLine
 10
6570.3485814527
 20
5506.5756745896
 30
0.0
 11
6572.1498934224
 21
5506.7125566564
 31
0.0
  0
LINE
  5
23E
330
1F
100
AcDbEntity
  8
0
  6
Continuous
 62
     7
100
AcDbLine
 10
6572.1498934224
 20
5506.7125566564
 30
0.0
 11
6574.018767257
 21
5506.7587502561
 31
0.0
  0
LINE
  5
23F
330
1F
100
AcDbEntity
  8
0
  6
Continuous
 62
     7
100
AcDbLine
 10
6583.248129268
 20
5505.1119037232
 30
0.0
 11
6583.3937434152
 21
5504.6858795247
 31
0.0
  0
LINE
  5
240
330
1F
100
AcDbEntity
  8
0
  6
Continuous
 62
     7
100
AcDbLine
 10
6583.3937434152
 20
5504.6858795247
 30
0.0
 11
6583.2687524751
 21
5504.2909689507
 31
0.0
  0
LINE
  5
241
330
1F
100
AcDbEntity
  8
0
  6
Continuous
 62
     7
100
AcDbLine
 10
6582.3680368856
 20
5503.582329329
 30
0.0
 11
6581.8137732938
 21
5503.3378310761
 31
0.0
  0
LINE
  5
242
330
1F
100
AcDbEntity
  8
0
  6
Continuous
 62
     7
100
AcDbLine
 10
6581.8137732938
 20
5503.3378310761
 30
0.0
 11
6580.7613042787
 21
5502.9999919496
 31
0.0
  0
LINE
  5
243
330
1F
100
AcDbEntity
  8
0
  6
Continuous
 62
     7
100
AcDbLine
 10
6565.861454387
 20
5503.4900017342
 30
0.0
 11
6565.3573779061
 21
5503.7573285661
 31
0.0
  0
LINE
  5
244
330
1F
100
AcDbEntity
  8
0
  6
Continuous
 62
     7
100
AcDbLine
 10
6565.3573779061
 20
5503.7573285661
 30
0.0
 11
6564.8989585832
 21
5504.1235693059
 31
0.0
  0
LINE
  5
245
330
1F
100
AcDbEntity
  8
0
  6
Continuous
 62
     7
100
AcDbLine
 10
6564.7687522367
 20
5504.2909689507
 30
0.0
 11
6564.6437612966
 21
5504.6858795247
 31
0.0
  0
LINE
  5
246
330
1F
100
AcDbEntity
  8
0
  6
Continuous
 62
     7
100
AcDbLine
 10
6564.6437612966
 20
5504.6858795247
 30
0.0
 11
6564.7893754438
 21
5505.1119037232
 31
0.0
  0
LINE
  5
247
330
1F
100
AcDbEntity
  8
0
  6
Continuous
 62
     7
100
AcDbLine
 10
5961.8680683568
 20
5508.3440251908
 30
0.0
 11
5986.1694482759
 21
5508.3440251908
 31
0.0
  0
LINE
  5
248
330
1F
100
AcDbEntity
  8
0
  6
Continuous
 62
     7
100
AcDbLine
 10
5987.1370903005
 20
5508.0760683321
 30
0.0
 11
5986.1694482759
 21
5508.3440251908
 31
0.0
  0
LINE
  5
249
330
1F
100
AcDbEntity
  8
0
  6
Continuous
 62
     7
100
AcDbLine
 10
5961.8680683568
 20
5508.3440251908
 30
0.0
 11
5960.9004259686
 21
5508.0760693075
 31
0.0
  0
LINE
  5
24A
330
1F
100
AcDbEntity
  8
0
  6
Continuous
 62
     7
100
AcDbLine
 10
5974.0187434152
 20
5506.7587502561
 30
0.0
 11
5975.8876172498
 21
5506.7125566564
 31
0.0
  0
LINE
  5
24B
330
1F
100
AcDbEntity
  8
0
  6
Continuous
 62
     7
100
AcDbLine
 10
5975.8876172498
 20
5506.7125566564
 30
0.0
 11
5977.6889292195
 21
5506.5756745896
 31
0.0
  0
LINE
  5
24C
330
1F
100
AcDbEntity
  8
0
  6
Continuous
 62
     7
100
AcDbLine
 10
5977.6889292195
 20
5506.5756745896
 30
0.0
 11
5979.3575910523
 21
5506.3530214391
 31
0.0
  0
LINE
  5
24D
330
1F
100
AcDbEntity
  8
0
  6
Continuous
 62
     7
100
AcDbLine
 10
5979.3575910523
 20
5506.3530214391
 30
0.0
 11
5980.8332828477
 21
5506.052673634
 31
0.0
  0
LINE
  5
24E
330
1F
100
AcDbEntity
  8
0
  6
Continuous
 62
     7
100
AcDbLine
 10
5980.8332828477
 20
5506.052673634
 30
0.0
 11
5982.0626882508
 21
5505.6854494176
 31
0.0
  0
LINE
  5
24F
330
1F
100
AcDbEntity
  8
0
  6
Continuous
 62
     7
100
AcDbLine
 10
5982.0626882508
 20
5505.6854494176
 30
0.0
 11
5983.0013719991
 21
5505.2646406255
 31
0.0
  0
LINE
  5
250
330
1F
100
AcDbEntity
  8
0
  6
Continuous
 62
     7
100
AcDbLine
 10
5983.0013719991
 20
5505.2646406255
 30
0.0
 11
5983.6153892472
 21
5504.8054762444
 31
0.0
  0
LINE
  5
251
330
1F
100
AcDbEntity
  8
0
  6
Continuous
 62
     7
100
AcDbLine
 10
5983.6153892472
 20
5504.8054762444
 30
0.0
 11
5983.8825670674
 21
5504.3245263657
 31
0.0
  0
LINE
  5
252
330
1F
100
AcDbEntity
  8
0
  6
Continuous
 62
     7
100
AcDbLine
 10
5983.8825670674
 20
5504.3245263657
 30
0.0
 11
5983.7932495072
 21
5503.8391657433
 31
0.0
  0
LINE
  5
253
330
1F
100
AcDbEntity
  8
0
  6
Continuous
 62
     7
100
AcDbLine
 10
5983.7932495072
 20
5503.8391657433
 30
0.0
 11
5983.3506254151
 21
5503.3669777474
 31
0.0
  0
LINE
  5
254
330
1F
100
AcDbEntity
  8
0
  6
Continuous
 62
     7
100
AcDbLine
 10
5983.3506254151
 20
5503.3669777474
 30
0.0
 11
5982.5707582429
 21
5502.9250093064
 31
0.0
  0
LINE
  5
255
330
1F
100
AcDbEntity
  8
0
  6
Continuous
 62
     7
100
AcDbLine
 10
5982.5707582429
 20
5502.9250093064
 30
0.0
 11
5981.4817813829
 21
5502.5292046628
 31
0.0
  0
LINE
  5
256
330
1F
100
AcDbEntity
  8
0
  6
Continuous
 62
     7
100
AcDbLine
 10
5981.4817813829
 20
5502.5292046628
 30
0.0
 11
5980.1230637029
 21
5502.1938987336
 31
0.0
  0
LINE
  5
257
330
1F
100
AcDbEntity
  8
0
  6
Continuous
 62
     7
100
AcDbLine
 10
5980.1230637029
 20
5502.1938987336
 30
0.0
 11
5978.5437492326
 21
5501.9311912618
 31
0.0
  0
LINE
  5
258
330
1F
100
AcDbEntity
  8
0
  6
Continuous
 62
     7
100
AcDbLine
 10
5978.5437492326
 20
5501.9311912618
 30
0.0
 11
5976.8008498147
 21
5501.7506189904
 31
0.0
  0
LINE
  5
259
330
1F
100
AcDbEntity
  8
0
  6
Continuous
 62
     7
100
AcDbLine
 10
5976.8008498147
 20
5501.7506189904
 30
0.0
 11
5974.9574271634
 21
5501.6586490235
 31
0.0
  0
LINE
  5
25A
330
1F
100
AcDbEntity
  8
0
  6
Continuous
 62
     7
100
AcDbLine
 10
5974.9574271634
 20
5501.6586490235
 30
0.0
 11
5973.0800894692
 21
5501.6586490235
 31
0.0
  0
LINE
  5
25B
330
1F
100
AcDbEntity
  8
0
  6
Continuous
 62
     7
100
AcDbLine
 10
5973.0800894692
 20
5501.6586490235
 30
0.0
 11
5971.2366370156
 21
5501.7506189904
 31
0.0
  0
LINE
  5
25C
330
1F
100
AcDbEntity
  8
0
  6
Continuous
 62
     7
100
AcDbLine
 10
5971.2366370156
 20
5501.7506189904
 30
0.0
 11
5969.4937674001
 21
5501.9311912618
 31
0.0
  0
LINE
  5
25D
330
1F
100
AcDbEntity
  8
0
  6
Continuous
 62
     7
100
AcDbLine
 10
5969.4937674001
 20
5501.9311912618
 30
0.0
 11
5967.9144231275
 21
5502.1938987336
 31
0.0
  0
LINE
  5
25E
330
1F
100
AcDbEntity
  8
0
  6
Continuous
 62
     7
100
AcDbLine
 10
5967.9144231275
 20
5502.1938987336
 30
0.0
 11
5966.5557352498
 21
5502.5292046628
 31
0.0
  0
LINE
  5
25F
330
1F
100
AcDbEntity
  8
0
  6
Continuous
 62
     7
100
AcDbLine
 10
5966.5557352498
 20
5502.5292046628
 30
0.0
 11
5965.4667583898
 21
5502.9250093064
 31
0.0
  0
LINE
  5
260
330
1F
100
AcDbEntity
  8
0
  6
Continuous
 62
     7
100
AcDbLine
 10
5965.4667583898
 20
5502.9250093064
 30
0.0
 11
5964.6868614152
 21
5503.3669777474
 31
0.0
  0
LINE
  5
261
330
1F
100
AcDbEntity
  8
0
  6
Continuous
 62
     7
100
AcDbLine
 10
5964.6868614152
 20
5503.3669777474
 30
0.0
 11
5964.2442671254
 21
5503.8391657433
 31
0.0
  0
LINE
  5
262
330
1F
100
AcDbEntity
  8
0
  6
Continuous
 62
     7
100
AcDbLine
 10
5964.2442671254
 20
5503.8391657433
 30
0.0
 11
5964.1549495652
 21
5504.3245263657
 31
0.0
  0
LINE
  5
263
330
1F
100
AcDbEntity
  8
0
  6
Continuous
 62
     7
100
AcDbLine
 10
5964.1549495652
 20
5504.3245263657
 30
0.0
 11
5964.4221273854
 21
5504.8054762444
 31
0.0
  0
LINE
  5
264
330
1F
100
AcDbEntity
  8
0
  6
Continuous
 62
     7
100
AcDbLine
 10
5964.4221273854
 20
5504.8054762444
 30
0.0
 11
5965.0361446336
 21
5505.2646406255
 31
0.0
  0
LINE
  5
265
330
1F
100
AcDbEntity
  8
0
  6
Continuous
 62
     7
100
AcDbLine
 10
5965.0361446336
 20
5505.2646406255
 30
0.0
 11
5965.9748283818
 21
5505.6854494176
 31
0.0
  0
LINE
  5
266
330
1F
100
AcDbEntity
  8
0
  6
Continuous
 62
     7
100
AcDbLine
 10
5965.9748283818
 20
5505.6854494176
 30
0.0
 11
5967.204233785
 21
5506.052673634
 31
0.0
  0
LINE
  5
267
330
1F
100
AcDbEntity
  8
0
  6
Continuous
 62
     7
100
AcDbLine
 10
5967.204233785
 20
5506.052673634
 30
0.0
 11
5968.6799255803
 21
5506.3530214391
 31
0.0
  0
LINE
  5
268
330
1F
100
AcDbEntity
  8
0
  6
Continuous
 62
     7
100
AcDbLine
 10
5968.6799255803
 20
5506.3530214391
 30
0.0
 11
5970.3485874131
 21
5506.5756745896
 31
0.0
  0
LINE
  5
269
330
1F
100
AcDbEntity
  8
0
  6
Continuous
 62
     7
100
AcDbLine
 10
5970.3485874131
 20
5506.5756745896
 30
0.0
 11
5972.1498993829
 21
5506.7125566564
 31
0.0
  0
LINE
  5
26A
330
1F
100
AcDbEntity
  8
0
  6
Continuous
 62
     7
100
AcDbLine
 10
5972.1498993829
 20
5506.7125566564
 30
0.0
 11
5974.0187434152
 21
5506.7587502561
 31
0.0
  0
LINE
  5
26B
330
1F
100
AcDbEntity
  8
0
  6
Continuous
 62
     7
100
AcDbLine
 10
5983.2481352284
 20
5505.1119037232
 30
0.0
 11
5983.3937493756
 21
5504.6858795247
 31
0.0
  0
LINE
  5
26C
330
1F
100
AcDbEntity
  8
0
  6
Continuous
 62
     7
100
AcDbLine
 10
5983.3937493756
 20
5504.6858795247
 30
0.0
 11
5983.2687584355
 21
5504.2909689507
 31
0.0
  0
LINE
  5
26D
330
1F
100
AcDbEntity
  8
0
  6
Continuous
 62
     7
100
AcDbLine
 10
5982.368042846
 20
5503.582329329
 30
0.0
 11
5981.8137792543
 21
5503.3378310761
 31
0.0
  0
LINE
  5
26E
330
1F
100
AcDbEntity
  8
0
  6
Continuous
 62
     7
100
AcDbLine
 10
5981.8137792543
 20
5503.3378310761
 30
0.0
 11
5980.7612804368
 21
5502.9999919496
 31
0.0
  0
LINE
  5
26F
330
1F
100
AcDbEntity
  8
0
  6
Continuous
 62
     7
100
AcDbLine
 10
5965.8614603475
 20
5503.4900017342
 30
0.0
 11
5965.3573838666
 21
5503.7573285661
 31
0.0
  0
LINE
  5
270
330
1F
100
AcDbEntity
  8
0
  6
Continuous
 62
     7
100
AcDbLine
 10
5965.3573838666
 20
5503.7573285661
 30
0.0
 11
5964.8989645436
 21
5504.1235693059
 31
0.0
  0
LINE
  5
271
330
1F
100
AcDbEntity
  8
0
  6
Continuous
 62
     7
100
AcDbLine
 10
5964.7687581971
 20
5504.2909689507
 30
0.0
 11
5964.643767257
 21
5504.6858795247
 31
0.0
  0
LINE
  5
272
330
1F
100
AcDbEntity
  8
0
  6
Continuous
 62
     7
100
AcDbLine
 10
5964.643767257
 20
5504.6858795247
 30
0.0
 11
5964.7893814042
 21
5505.1119037232
 31
0.0
  0
LINE
  5
273
330
1F
100
AcDbEntity
  8
0
  6
Continuous
 62
     7
100
AcDbLine
 10
5774.4125334218
 20
4807.6442189774
 30
0.0
 11
5828.6249844029
 21
4807.6442189774
 31
0.0
  0
LINE
  5
274
330
1F
100
AcDbEntity
  8
0
  6
Continuous
 62
     7
100
AcDbLine
 10
5828.8282064393
 20
4932.2975285611
 30
0.0
 11
5774.2093113854
 21
4932.2975285611
 31
0.0
  0
LINE
  5
275
330
1F
100
AcDbEntity
  8
0
  6
Continuous
 62
     7
100
AcDbLine
 10
5778.518757005
 20
4948.4498806558
 30
0.0
 11
5824.5187608197
 21
4948.4498806558
 31
0.0
  0
LINE
  5
276
330
1F
100
AcDbEntity
  8
0
  6
Continuous
 62
     7
100
AcDbLine
 10
7305.7460472694
 20
5604.1797407231
 30
0.0
 11
7306.1260566821
 21
5604.1797407231
 31
0.0
  0
LINE
  5
277
330
1F
100
AcDbEntity
  8
0
  6
Continuous
 62
     7
100
AcDbLine
 10
7306.1260566821
 20
5611.7797501645
 30
0.0
 11
7305.7460472694
 21
5611.7797501645
 31
0.0
  0
LINE
  5
278
330
1F
100
AcDbEntity
  8
0
  6
Continuous
 62
     7
100
AcDbLine
 10
7305.7460472694
 20
5514.1797371468
 30
0.0
 11
7306.1260566821
 21
5514.1797371468
 31
0.0
  0
LINE
  5
279
330
1F
100
AcDbEntity
  8
0
  6
Continuous
 62
     7
100
AcDbLine
 10
7306.1260566821
 20
5521.7797465882
 30
0.0
 11
7305.7460472694
 21
5521.7797465882
 31
0.0
  0
LINE
  5
27A
330
1F
100
AcDbEntity
  8
0
  6
Continuous
 62
     7
100
AcDbLine
 10
7320.9576592555
 20
4952.9498823247
 30
0.0
 11
7305.9576437583
 21
4952.9498823247
 31
0.0
  0
LINE
  5
27B
330
1F
100
AcDbEntity
  8
0
  6
Continuous
 62
     7
100
AcDbLine
 10
7305.9576437583
 20
4872.949899014
 30
0.0
 11
7320.9576592555
 21
4872.949899014
 31
0.0
  0
LINE
  5
27C
330
1F
100
AcDbEntity
  8
0
  6
Continuous
 62
     7
100
AcDbLine
 10
7305.9576437583
 20
4932.9498715959
 30
0.0
 11
7295.9576532951
 21
4932.9498715959
 31
0.0
  0
LINE
  5
27D
330
1F
100
AcDbEntity
  8
0
  6
Continuous
 62
     7
100
AcDbLine
 10
7295.9576532951
 20
4892.9498799405
 30
0.0
 11
7305.9576437583
 21
4892.9498799405
 31
0.0
  0
LINE
  5
27E
330
1F
100
AcDbEntity
  8
0
  6
Continuous
 62
     7
100
AcDbLine
 10
7488.6260316482
 20
4932.9498715959
 30
0.0
 11
7340.9576401821
 21
4932.9498715959
 31
0.0
  0
LINE
  5
27F
330
1F
100
AcDbEntity
  8
0
  6
Continuous
 62
     7
100
AcDbLine
 10
7340.9576401821
 20
4892.9498799405
 30
0.0
 11
7488.6260316482
 21
4892.9498799405
 31
0.0
  0
LINE
  5
280
330
1F
100
AcDbEntity
  8
0
  6
Continuous
 62
     7
100
AcDbLine
 10
7532.6260314098
 20
4952.9657967648
 30
0.0
 11
7532.6260314098
 21
4951.4498718343
 31
0.0
  0
LINE
  5
281
330
1F
100
AcDbEntity
  8
0
  6
Continuous
 62
     7
100
AcDbLine
 10
7532.6260314098
 20
4937.4498732648
 30
0.0
 11
7532.6260314098
 21
4934.949875649
 31
0.0
  0
LINE
  5
282
330
1F
100
AcDbEntity
  8
0
  6
Continuous
 62
     7
100
AcDbLine
 10
7564.6260515561
 20
4934.949875649
 30
0.0
 11
7564.6260515561
 21
4937.4498732648
 31
0.0
  0
LINE
  5
283
330
1F
100
AcDbEntity
  8
0
  6
Continuous
 62
     7
100
AcDbLine
 10
7564.6260515561
 20
4951.4498718343
 30
0.0
 11
7564.6260515561
 21
4952.9657967648
 31
0.0
  0
LINE
  5
284
330
1F
100
AcDbEntity
  8
0
  6
Continuous
 62
     7
100
AcDbLine
 10
7514.6260545364
 20
4874.9498732648
 30
0.0
 11
7521.5198383441
 21
4807.6442189774
 31
0.0
  0
LINE
  5
285
330
1F
100
AcDbEntity
  8
0
  6
Continuous
 62
     7
100
AcDbLine
 10
7575.732259523
 20
4807.6442189774
 30
0.0
 11
7582.6260433307
 21
4874.9498732648
 31
0.0
  0
LINE
  5
286
330
1F
100
AcDbEntity
  8
0
  6
Continuous
 62
     7
100
AcDbLine
 10
7582.6260433307
 20
4874.9498732648
 30
0.0
 11
7575.9354815593
 21
4932.2975285611
 31
0.0
  0
LINE
  5
287
330
1F
100
AcDbEntity
  8
0
  6
Continuous
 62
     7
100
AcDbLine
 10
7516.4971337428
 20
4890.9879036508
 30
0.0
 11
7514.6260545364
 21
4874.9498732648
 31
0.0
  0
LINE
  5
288
330
1F
100
AcDbEntity
  8
0
  6
Continuous
 62
     7
100
AcDbLine
 10
7504.6260342708
 20
4940.4498942456
 30
0.0
 11
7500.6260559669
 21
4938.9498837552
 31
0.0
  0
LINE
  5
289
330
1F
100
AcDbEntity
  8
0
  6
Continuous
 62
     7
100
AcDbLine
 10
7500.6260559669
 20
4886.9498975835
 30
0.0
 11
7504.6260342708
 21
4885.4498870931
 31
0.0
  0
LINE
  5
28A
330
1F
100
AcDbEntity
  8
0
  6
Continuous
 62
     7
100
AcDbLine
 10
7500.6260559669
 20
4938.9498837552
 30
0.0
 11
7491.626052629
 21
4938.9498837552
 31
0.0
  0
LINE
  5
28B
330
1F
100
AcDbEntity
  8
0
  6
Continuous
 62
     7
100
AcDbLine
 10
7491.626052629
 20
4886.9498975835
 30
0.0
 11
7500.6260559669
 21
4886.9498975835
 31
0.0
  0
LINE
  5
28C
330
1F
100
AcDbEntity
  8
0
  6
Continuous
 62
     7
100
AcDbLine
 10
7573.6260399928
 20
4937.4498732648
 30
0.0
 11
7571.6260508409
 21
4941.449881371
 31
0.0
  0
LINE
  5
28D
330
1F
100
AcDbEntity
  8
0
  6
Continuous
 62
     7
100
AcDbLine
 10
7525.626032125
 20
4941.449881371
 30
0.0
 11
7523.6260578742
 21
4937.4498732648
 31
0.0
  0
LINE
  5
28E
330
1F
100
AcDbEntity
  8
0
  6
Continuous
 62
     7
100
AcDbLine
 10
7525.626032125
 20
4948.4498806558
 30
0.0
 11
7525.626032125
 21
4941.449881371
 31
0.0
  0
LINE
  5
28F
330
1F
100
AcDbEntity
  8
0
  6
Continuous
 62
     7
100
AcDbLine
 10
7571.6260508409
 20
4941.449881371
 30
0.0
 11
7571.6260508409
 21
4948.4498806558
 31
0.0
  0
LINE
  5
290
330
1F
100
AcDbEntity
  8
0
  6
Continuous
 62
     7
100
AcDbLine
 10
7504.6260342708
 20
4890.9498758874
 30
0.0
 11
7516.5208861938
 21
4890.9498758874
 31
0.0
  0
LINE
  5
291
330
1F
100
AcDbEntity
  8
0
  6
Continuous
 62
     7
100
AcDbLine
 10
7521.6260538211
 20
4934.949875649
 30
0.0
 11
7504.6260342708
 21
4934.949875649
 31
0.0
  0
LINE
  5
292
330
1F
100
AcDbEntity
  8
0
  6
Continuous
 62
     7
100
AcDbLine
 10
7532.6260314098
 20
4937.4498732648
 30
0.0
 11
7532.6260314098
 21
4934.949875649
 31
0.0
  0
LINE
  5
293
330
1F
100
AcDbEntity
  8
0
  6
Continuous
 62
     7
100
AcDbLine
 10
7564.6260515561
 20
4934.949875649
 30
0.0
 11
7564.6260515561
 21
4937.4498732648
 31
0.0
  0
LINE
  5
294
330
1F
100
AcDbEntity
  8
0
  6
Continuous
 62
     7
100
AcDbLine
 10
7365.6760439983
 20
5306.3657962046
 30
0.0
 11
7365.6760439983
 21
5316.9657968244
 31
0.0
  0
LINE
  5
295
330
1F
100
AcDbEntity
  8
0
  6
Continuous
 62
     7
100
AcDbLine
 10
7356.1260388008
 20
5292.9658003411
 30
0.0
 11
7358.1260428539
 21
5292.9658003411
 31
0.0
  0
LINE
  5
296
330
1F
100
AcDbEntity
  8
0
  6
Continuous
 62
     7
100
AcDbLine
 10
7358.1260428539
 20
5332.9657919965
 30
0.0
 11
7356.1260388008
 21
5332.9657919965
 31
0.0
  0
LINE
  5
297
330
1F
100
AcDbEntity
  8
0
  6
Continuous
 62
     7
100
AcDbLine
 10
7365.5260489097
 20
5317.2657944522
 30
0.0
 11
7365.5260489097
 21
5320.4081662259
 31
0.0
  0
LINE
  5
298
330
1F
100
AcDbEntity
  8
0
  6
Continuous
 62
     7
100
AcDbLine
 10
7365.5260489097
 20
5305.5234261117
 30
0.0
 11
7365.5260489097
 21
5306.2657945118
 31
0.0
  0
LINE
  5
299
330
1F
100
AcDbEntity
  8
0
  6
Continuous
 62
     7
100
AcDbLine
 10
7358.6260364166
 20
5482.9657979569
 30
0.0
 11
7359.1260597816
 21
5483.4657915196
 31
0.0
  0
LINE
  5
29A
330
1F
100
AcDbEntity
  8
0
  6
Continuous
 62
     7
100
AcDbLine
 10
7359.1260597816
 20
5542.4658067784
 30
0.0
 11
7358.6260364166
 21
5542.9658003411
 31
0.0
  0
LINE
  5
29B
330
1F
100
AcDbEntity
  8
0
  6
Continuous
 62
     7
100
AcDbLine
 10
7358.6260364166
 20
5542.9658003411
 30
0.0
 11
7356.1260388008
 21
5542.9658003411
 31
0.0
  0
LINE
  5
29C
330
1F
100
AcDbEntity
  8
0
  6
Continuous
 62
     7
100
AcDbLine
 10
7356.1260388008
 20
5482.9657979569
 30
0.0
 11
7358.6260364166
 21
5482.9657979569
 31
0.0
  0
LINE
  5
29D
330
1F
100
AcDbEntity
  8
0
  6
Continuous
 62
     7
100
AcDbLine
 10
7367.776034843
 20
5498.9658005795
 30
0.0
 11
7490.1260421386
 21
5498.9658005795
 31
0.0
  0
LINE
  5
29E
330
1F
100
AcDbEntity
  8
0
  6
Continuous
 62
     7
100
AcDbLine
 10
7359.1260597816
 20
5498.9658005795
 30
0.0
 11
7364.4967362991
 21
5498.9658005795
 31
0.0
  0
LINE
  5
29F
330
1F
100
AcDbEntity
  8
0
  6
Continuous
 62
     7
100
AcDbLine
 10
7524.1260514369
 20
5526.9657977185
 30
0.0
 11
7359.1260597816
 21
5526.9657977185
 31
0.0
  0
LINE
  5
2A0
330
1F
100
AcDbEntity
  8
0
  6
Continuous
 62
     7
100
AcDbLine
 10
7525.1260385623
 20
5525.9658105931
 30
0.0
 11
7524.1260514369
 21
5526.9657977185
 31
0.0
  0
LINE
  5
2A1
330
1F
100
AcDbEntity
  8
0
  6
Continuous
 62
     7
100
AcDbLine
 10
7306.1260566821
 20
5599.5658047757
 30
0.0
 11
7306.1260566821
 21
5620.2490337453
 31
0.0
  0
LINE
  5
2A2
330
1F
100
AcDbEntity
  8
0
  6
Continuous
 62
     7
100
AcDbLine
 10
7308.7834403625
 20
5622.4009402356
 30
0.0
 11
7354.3834374061
 21
5612.7083607278
 31
0.0
  0
LINE
  5
2A3
330
1F
100
AcDbEntity
  8
0
  6
Continuous
 62
     7
100
AcDbLine
 10
7356.1260388008
 20
5610.5564542375
 30
0.0
 11
7356.1260388008
 21
5202.9657967648
 31
0.0
  0
LINE
  5
2A4
330
1F
100
AcDbEntity
  8
0
  6
Continuous
 62
     7
100
AcDbLine
 10
7356.1260388008
 20
5202.9657967648
 30
0.0
 11
7783.9260459652
 21
5202.9657967648
 31
0.0
  0
LINE
  5
2A5
330
1F
100
AcDbEntity
  8
0
  6
Continuous
 62
     7
100
AcDbLine
 10
7786.1260459533
 20
5200.7657967768
 30
0.0
 11
7786.1260459533
 21
5177.9657963923
 31
0.0
  0
LINE
  5
2A6
330
1F
100
AcDbEntity
  8
0
  6
Continuous
 62
     7
100
AcDbLine
 10
7786.1260459533
 20
5177.9657963923
 30
0.0
 11
7783.1260459272
 21
5177.9657963923
 31
0.0
  0
LINE
  5
2A7
330
1F
100
AcDbEntity
  8
0
  6
Continuous
 62
     7
100
AcDbLine
 10
7783.1260459272
 20
5177.9657963923
 30
0.0
 11
7783.1260459272
 21
5177.9557958505
 31
0.0
  0
LINE
  5
2A8
330
1F
100
AcDbEntity
  8
0
  6
Continuous
 62
     7
100
AcDbLine
 10
7783.1260459272
 20
4952.9657967648
 30
0.0
 11
7783.1260459272
 21
5177.9557958505
 31
0.0
  0
LINE
  5
2A9
330
1F
100
AcDbEntity
  8
0
  6
Continuous
 62
     7
100
AcDbLine
 10
7783.1260459272
 20
4952.9657967648
 30
0.0
 11
7309.2260346523
 21
4952.9657967648
 31
0.0
  0
LINE
  5
2AA
330
1F
100
AcDbEntity
  8
0
  6
Continuous
 62
     7
100
AcDbLine
 10
7309.2260346523
 20
5597.5658007226
 30
0.0
 11
7309.2260346523
 21
4952.9657967648
 31
0.0
  0
LINE
  5
2AB
330
1F
100
AcDbEntity
  8
0
  6
Continuous
 62
     7
100
AcDbLine
 10
7309.2260346523
 20
5597.5658007226
 30
0.0
 11
7310.22605158
 21
5597.5658007226
 31
0.0
  0
LINE
  5
2AC
330
1F
100
AcDbEntity
  8
0
  6
Continuous
 62
     7
100
AcDbLine
 10
7310.22605158
 20
5597.5658007226
 30
0.0
 11
7310.22605158
 21
5599.5658047757
 31
0.0
  0
LINE
  5
2AD
330
1F
100
AcDbEntity
  8
0
  6
Continuous
 62
     7
100
AcDbLine
 10
7310.22605158
 20
5599.5658047757
 30
0.0
 11
7306.1260566821
 21
5599.5658047757
 31
0.0
  0
LINE
  5
2AE
330
1F
100
AcDbEntity
  8
0
  6
Continuous
 62
     7
100
AcDbLine
 10
7306.1260566821
 20
4952.9657967648
 30
0.0
 11
7306.1260566821
 21
5597.5658007226
 31
0.0
  0
LINE
  5
2AF
330
1F
100
AcDbEntity
  8
0
  6
Continuous
 62
     7
100
AcDbLine
 10
7306.1260566821
 20
5597.5658007226
 30
0.0
 11
7309.2260346523
 21
5597.5658007226
 31
0.0
  0
LINE
  5
2B0
330
1F
100
AcDbEntity
  8
0
  6
Continuous
 62
     7
100
AcDbLine
 10
7309.2260346523
 20
4952.9657967648
 30
0.0
 11
7306.1260566821
 21
4952.9657967648
 31
0.0
  0
LINE
  5
2B1
330
1F
100
AcDbEntity
  8
0
  6
Continuous
 62
     7
100
AcDbLine
 10
7786.2260459508
 20
4952.9657967648
 30
0.0
 11
7786.2260459508
 21
5177.9557958505
 31
0.0
  0
LINE
  5
2B2
330
1F
100
AcDbEntity
  8
0
  6
Continuous
 62
     7
100
AcDbLine
 10
7786.2260459508
 20
4952.9657967648
 30
0.0
 11
7783.1260459272
 21
4952.9657967648
 31
0.0
  0
LINE
  5
2B3
330
1F
100
AcDbEntity
  8
0
  6
Continuous
 62
     7
100
AcDbLine
 10
7783.1260459272
 20
5177.9557958505
 30
0.0
 11
7786.2260459508
 21
5177.9557958505
 31
0.0
  0
LINE
  5
2B4
330
1F
100
AcDbEntity
  8
0
  6
Continuous
 62
     7
100
AcDbLine
 10
7307.3260471931
 20
5599.5658047757
 30
0.0
 11
7307.3260471931
 21
5597.9658074937
 31
0.0
  0
LINE
  5
2B5
330
1F
100
AcDbEntity
  8
0
  6
Continuous
 62
     7
100
AcDbLine
 10
7306.1260566821
 20
5597.9658074937
 30
0.0
 11
7307.3260471931
 21
5597.9658074937
 31
0.0
  0
LINE
  5
2B6
330
1F
100
AcDbEntity
  8
0
  6
Continuous
 62
     7
100
AcDbLine
 10
7306.1260566821
 20
5599.5658047757
 30
0.0
 11
7306.1260566821
 21
5597.9658074937
 31
0.0
  0
LINE
  5
2B7
330
1F
100
AcDbEntity
  8
0
  6
Continuous
 62
     7
100
AcDbLine
 10
7305.7460472694
 20
5604.1797407231
 30
0.0
 11
7305.7460472694
 21
5611.7797501645
 31
0.0
  0
LINE
  5
2B8
330
1F
100
AcDbEntity
  8
0
  6
Continuous
 62
     7
100
AcDbLine
 10
7303.9260492435
 20
5606.0797579846
 30
0.0
 11
7303.9260492435
 21
5609.879732903
 31
0.0
  0
LINE
  5
2B9
330
1F
100
AcDbEntity
  8
0
  6
Continuous
 62
     7
100
AcDbLine
 10
7305.7460472694
 20
5521.6482885442
 30
0.0
 11
7305.7460472694
 21
5521.7797465882
 31
0.0
  0
LINE
  5
2BA
330
1F
100
AcDbEntity
  8
0
  6
Continuous
 62
     7
100
AcDbLine
 10
7305.7460472694
 20
5514.1797371468
 30
0.0
 11
7305.7460472694
 21
5521.6482885442
 31
0.0
  0
LINE
  5
2BB
330
1F
100
AcDbEntity
  8
0
  6
Continuous
 62
     7
100
AcDbLine
 10
7303.9260492435
 20
5519.8140152059
 30
0.0
 11
7303.9260492435
 21
5519.879759129
 31
0.0
  0
LINE
  5
2BC
330
1F
100
AcDbEntity
  8
0
  6
Continuous
 62
     7
100
AcDbLine
 10
7303.9260492435
 20
5516.0797544084
 30
0.0
 11
7303.9260492435
 21
5519.8140152059
 31
0.0
  0
LINE
  5
2BD
330
1F
100
AcDbEntity
  8
0
  6
Continuous
 62
     7
100
AcDbLine
 10
7309.6260414234
 20
5598.979742106
 30
0.0
 11
7308.1260607353
 21
5598.979742106
 31
0.0
  0
LINE
  5
2BE
330
1F
100
AcDbEntity
  8
0
  6
Continuous
 62
     7
100
AcDbLine
 10
7309.6260414234
 20
5598.979742106
 30
0.0
 11
7309.6260414234
 21
5597.5658007226
 31
0.0
  0
LINE
  5
2BF
330
1F
100
AcDbEntity
  8
0
  6
Continuous
 62
     7
100
AcDbLine
 10
7308.1260607353
 20
5598.979742106
 30
0.0
 11
7308.1260607353
 21
5597.5658007226
 31
0.0
  0
LINE
  5
2C0
330
1F
100
AcDbEntity
  8
0
  6
Continuous
 62
     7
100
AcDbLine
 10
7309.6260414234
 20
5599.5658047757
 30
0.0
 11
7309.6260414234
 21
5598.979742106
 31
0.0
  0
LINE
  5
2C1
330
1F
100
AcDbEntity
  8
0
  6
Continuous
 62
     7
100
AcDbLine
 10
7308.1260607353
 20
5598.979742106
 30
0.0
 11
7308.1260607353
 21
5599.5658047757
 31
0.0
  0
LINE
  5
2C2
330
1F
100
AcDbEntity
  8
0
  6
Continuous
 62
     7
100
AcDbLine
 10
7305.9576437583
 20
4952.9498823247
 30
0.0
 11
7305.9576437583
 21
4872.949899014
 31
0.0
  0
LINE
  5
2C3
330
1F
100
AcDbEntity
  8
0
  6
Continuous
 62
     7
100
AcDbLine
 10
7340.9576401821
 20
4932.9498715959
 30
0.0
 11
7340.9576401821
 21
4892.9498799405
 31
0.0
  0
LINE
  5
2C4
330
1F
100
AcDbEntity
  8
0
  6
Continuous
 62
     7
100
AcDbLine
 10
7295.9576532951
 20
4932.9498715959
 30
0.0
 11
7295.9576532951
 21
4892.9498799405
 31
0.0
  0
LINE
  5
2C5
330
1F
100
AcDbEntity
  8
0
  6
Continuous
 62
     7
100
AcDbLine
 10
7514.6260545364
 20
4874.9498732648
 30
0.0
 11
7582.6260433307
 21
4874.9498732648
 31
0.0
  0
LINE
  5
2C6
330
1F
100
AcDbEntity
  8
0
  6
Continuous
 62
     7
100
AcDbLine
 10
7504.6260342708
 20
4940.4498942456
 30
0.0
 11
7504.6260342708
 21
4885.4498870931
 31
0.0
  0
LINE
  5
2C7
330
1F
100
AcDbEntity
  8
0
  6
Continuous
 62
     7
100
AcDbLine
 10
7500.6260559669
 20
4938.9498837552
 30
0.0
 11
7500.6260559669
 21
4886.9498975835
 31
0.0
  0
LINE
  5
2C8
330
1F
100
AcDbEntity
  8
0
  6
Continuous
 62
     7
100
AcDbLine
 10
7526.1562750449
 20
4934.949875649
 30
0.0
 11
7572.9556963554
 21
4934.949875649
 31
0.0
  0
LINE
  5
2C9
330
1F
100
AcDbEntity
  8
0
  6
Continuous
 62
     7
100
AcDbLine
 10
7524.5042131057
 20
4804.9498804173
 30
0.0
 11
7572.7478698602
 21
4804.9498804173
 31
0.0
  0
LINE
  5
2CA
330
1F
100
AcDbEntity
  8
0
  6
Continuous
 62
     7
100
AcDbLine
 10
7488.6260316482
 20
4935.9498925767
 30
0.0
 11
7488.6260316482
 21
4889.949888762
 31
0.0
  0
LINE
  5
2CB
330
1F
100
AcDbEntity
  8
0
  6
Continuous
 62
     7
100
AcDbLine
 10
7525.626032125
 20
4941.449881371
 30
0.0
 11
7571.6260508409
 21
4941.449881371
 31
0.0
  0
LINE
  5
2CC
330
1F
100
AcDbEntity
  8
0
  6
Continuous
 62
     7
100
AcDbLine
 10
7523.6260578742
 20
4937.4498732648
 30
0.0
 11
7573.6260399928
 21
4937.4498732648
 31
0.0
  0
LINE
  5
2CD
330
1F
100
AcDbEntity
  8
0
  6
Continuous
 62
     7
100
AcDbLine
 10
7528.6260531059
 20
4951.4498718343
 30
0.0
 11
7568.6260447612
 21
4951.4498718343
 31
0.0
  0
LINE
  5
2CE
330
1F
100
AcDbEntity
  8
0
  6
Continuous
 62
     7
100
AcDbLine
 10
7364.5557150951
 20
5316.9657968244
 30
0.0
 11
7363.8437972179
 21
5316.9657968244
 31
0.0
  0
LINE
  5
2CF
330
1F
100
AcDbEntity
  8
0
  6
Continuous
 62
     7
100
AcDbLine
 10
7364.5557150951
 20
5306.3657962046
 30
0.0
 11
7364.1298399082
 21
5306.3657962046
 31
0.0
  0
LINE
  5
2D0
330
1F
100
AcDbEntity
  8
0
  6
Continuous
 62
     7
100
AcDbLine
 10
7365.6760439983
 20
5316.9657968244
 30
0.0
 11
7364.5557150951
 21
5316.9657968244
 31
0.0
  0
LINE
  5
2D1
330
1F
100
AcDbEntity
  8
0
  6
Continuous
 62
     7
100
AcDbLine
 10
7365.6760439983
 20
5306.3657962046
 30
0.0
 11
7364.5557150951
 21
5306.3657962046
 31
0.0
  0
LINE
  5
2D2
330
1F
100
AcDbEntity
  8
0
  6
Continuous
 62
     7
100
AcDbLine
 10
7358.1260428539
 20
5304.6015881262
 30
0.0
 11
7358.1260428539
 21
5292.9658003411
 31
0.0
  0
LINE
  5
2D3
330
1F
100
AcDbEntity
  8
0
  6
Continuous
 62
     7
100
AcDbLine
 10
7358.1260428539
 20
5332.9657919965
 30
0.0
 11
7358.1260428539
 21
5321.3300042114
 31
0.0
  0
LINE
  5
2D4
330
1F
100
AcDbEntity
  8
0
  6
Continuous
 62
     7
100
AcDbLine
 10
7365.5260489097
 20
5317.2657944522
 30
0.0
 11
7364.420829784
 21
5317.2657944522
 31
0.0
  0
LINE
  5
2D5
330
1F
100
AcDbEntity
  8
0
  6
Continuous
 62
     7
100
AcDbLine
 10
7364.420829784
 20
5306.2657945118
 30
0.0
 11
7365.5260489097
 21
5306.2657945118
 31
0.0
  0
LINE
  5
2D6
330
1F
100
AcDbEntity
  8
0
  6
Continuous
 62
     7
100
AcDbLine
 10
7781.2260458952
 20
4952.8658099732
 30
0.0
 11
7781.2260458952
 21
4952.9657967648
 31
0.0
  0
LINE
  5
2D7
330
1F
100
AcDbEntity
  8
0
  6
Continuous
 62
     7
100
AcDbLine
 10
7774.2260456791
 20
4952.8658099732
 30
0.0
 11
7774.2260456791
 21
4952.9657967648
 31
0.0
  0
LINE
  5
2D8
330
1F
100
AcDbEntity
  8
0
  6
Continuous
 62
     7
100
AcDbLine
 10
7781.2260458952
 20
4952.8658099732
 30
0.0
 11
7774.2260456791
 21
4952.8658099732
 31
0.0
  0
LINE
  5
2D9
330
1F
100
AcDbEntity
  8
0
  6
Continuous
 62
     7
100
AcDbLine
 10
7365.0220618358
 20
5498.9658005795
 30
0.0
 11
7364.6260485759
 21
5498.9658005795
 31
0.0
  0
LINE
  5
2DA
330
1F
100
AcDbEntity
  8
0
  6
Continuous
 62
     7
100
AcDbLine
 10
7367.6260397544
 20
5498.9658005795
 30
0.0
 11
7365.0220618358
 21
5498.9658005795
 31
0.0
  0
LINE
  5
2DB
330
1F
100
AcDbEntity
  8
0
  6
Continuous
 62
     7
100
AcDbLine
 10
7359.1260597816
 20
5524.3448920808
 30
0.0
 11
7359.1260597816
 21
5483.4657915196
 31
0.0
  0
LINE
  5
2DC
330
1F
100
AcDbEntity
  8
0
  6
Continuous
 62
     7
100
AcDbLine
 10
7359.1260597816
 20
5542.4658067784
 30
0.0
 11
7359.1260597816
 21
5524.3448920808
 31
0.0
  0
LINE
  5
2DD
330
1F
100
AcDbEntity
  8
0
  6
Continuous
 62
     7
100
AcDbLine
 10
7358.6260364166
 20
5524.5377429089
 30
0.0
 11
7358.6260364166
 21
5542.9658003411
 31
0.0
  0
LINE
  5
2DE
330
1F
100
AcDbEntity
  8
0
  6
Continuous
 62
     7
100
AcDbLine
 10
7358.6260364166
 20
5482.9657979569
 30
0.0
 11
7358.6260364166
 21
5524.5377429089
 31
0.0
  0
LINE
  5
2DF
330
1F
100
AcDbEntity
  8
0
  6
Continuous
 62
     7
100
AcDbLine
 10
7524.1260514369
 20
5508.0760725102
 30
0.0
 11
7524.1260514369
 21
5526.9657977185
 31
0.0
  0
LINE
  5
2E0
330
1F
100
AcDbEntity
  8
0
  6
Continuous
 62
     7
100
AcDbLine
 10
7490.1260421386
 20
5498.9658005795
 30
0.0
 11
7490.2970776668
 21
5499.0116365514
 31
0.0
  0
LINE
  5
2E1
330
1F
100
AcDbEntity
  8
0
  6
Continuous
 62
     7
100
AcDbLine
 10
7490.2970776668
 20
5499.0116365514
 30
0.0
 11
7490.8090517631
 21
5499.1488166413
 31
0.0
  0
LINE
  5
2E2
330
1F
100
AcDbEntity
  8
0
  6
Continuous
 62
     7
100
AcDbLine
 10
7490.8090517631
 20
5499.1488166413
 30
0.0
 11
7491.6585967651
 21
5499.3764467797
 31
0.0
  0
LINE
  5
2E3
330
1F
100
AcDbEntity
  8
0
  6
Continuous
 62
     7
100
AcDbLine
 10
7491.6585967651
 20
5499.3764467797
 30
0.0
 11
7492.8401694408
 21
5499.6930368504
 31
0.0
  0
LINE
  5
2E4
330
1F
100
AcDbEntity
  8
0
  6
Continuous
 62
     7
100
AcDbLine
 10
7492.8401694408
 20
5499.6930368504
 30
0.0
 11
7494.3460509887
 21
5500.0965304933
 31
0.0
  0
LINE
  5
2E5
330
1F
100
AcDbEntity
  8
0
  6
Continuous
 62
     7
100
AcDbLine
 10
7494.3460509887
 20
5500.0965304933
 30
0.0
 11
7496.1663470378
 21
5500.5842753014
 31
0.0
  0
LINE
  5
2E6
330
1F
100
AcDbEntity
  8
0
  6
Continuous
 62
     7
100
AcDbLine
 10
7496.1663470378
 20
5500.5842753014
 30
0.0
 11
7498.2891366592
 21
5501.1530824265
 31
0.0
  0
LINE
  5
2E7
330
1F
100
AcDbEntity
  8
0
  6
Continuous
 62
     7
100
AcDbLine
 10
7498.2891366592
 20
5501.1530824265
 30
0.0
 11
7500.7005617729
 21
5501.7992265782
 31
0.0
  0
LINE
  5
2E8
330
1F
100
AcDbEntity
  8
0
  6
Continuous
 62
     7
100
AcDbLine
 10
7500.7005617729
 20
5501.7992265782
 30
0.0
 11
7503.384827148
 21
5502.5184758267
 31
0.0
  0
LINE
  5
2E9
330
1F
100
AcDbEntity
  8
0
  6
Continuous
 62
     7
100
AcDbLine
 10
7503.384827148
 20
5502.5184758267
 30
0.0
 11
7506.3243494144
 21
5503.3061214051
 31
0.0
  0
LINE
  5
2EA
330
1F
100
AcDbEntity
  8
0
  6
Continuous
 62
     7
100
AcDbLine
 10
7506.3243494144
 20
5503.3061214051
 30
0.0
 11
7509.4998762718
 21
5504.1570075116
 31
0.0
  0
LINE
  5
2EB
330
1F
100
AcDbEntity
  8
0
  6
Continuous
 62
     7
100
AcDbLine
 10
7509.4998762718
 20
5504.1570075116
 30
0.0
 11
7512.8906056991
 21
5505.0655313096
 31
0.0
  0
LINE
  5
2EC
330
1F
100
AcDbEntity
  8
0
  6
Continuous
 62
     7
100
AcDbLine
 10
7512.8906056991
 20
5505.0655313096
 30
0.0
 11
7516.4743945709
 21
5506.0258217416
 31
0.0
  0
LINE
  5
2ED
330
1F
100
AcDbEntity
  8
0
  6
Continuous
 62
     7
100
AcDbLine
 10
7516.4743945709
 20
5506.0258217416
 30
0.0
 11
7520.2277288547
 21
5507.0315309129
 31
0.0
  0
LINE
  5
2EE
330
1F
100
AcDbEntity
  8
0
  6
Continuous
 62
     7
100
AcDbLine
 10
7520.2277288547
 20
5507.0315309129
 30
0.0
 11
7524.1260514369
 21
5508.0760725102
 31
0.0
  0
LINE
  5
2EF
330
1F
100
AcDbEntity
  8
0
  6
Continuous
 62
     7
100
AcDbLine
 10
7525.1260385623
 20
5525.9658105931
 30
0.0
 11
7525.1260385623
 21
5508.3440251908
 31
0.0
  0
LINE
  5
2F0
330
1F
100
AcDbEntity
  8
0
  6
Continuous
 62
     7
100
AcDbLine
 10
7525.1260385623
 20
5508.3440251908
 30
0.0
 11
7524.1260514369
 21
5508.0760725102
 31
0.0
  0
LINE
  5
2F1
330
1F
100
AcDbEntity
  8
0
  6
Continuous
 62
     7
100
AcDbLine
 10
7320.9576592555
 20
4952.9498823247
 30
0.0
 11
7320.9576592555
 21
4872.949899014
 31
0.0
  0
LINE
  5
2F2
330
1F
100
AcDbEntity
  8
0
  6
Continuous
 62
     7
100
AcDbLine
 10
7521.5198383441
 20
4807.6442189774
 30
0.0
 11
7575.732259523
 21
4807.6442189774
 31
0.0
  0
LINE
  5
2F3
330
1F
100
AcDbEntity
  8
0
  6
Continuous
 62
     7
100
AcDbLine
 10
7575.9354815593
 20
4932.2975285611
 30
0.0
 11
7523.4042987934
 21
4932.2975285611
 31
0.0
  0
LINE
  5
2F4
330
1F
100
AcDbEntity
  8
0
  6
Continuous
 62
     7
100
AcDbLine
 10
7491.626052629
 20
4938.9498837552
 30
0.0
 11
7491.626052629
 21
4886.9498975835
 31
0.0
  0
LINE
  5
2F5
330
1F
100
AcDbEntity
  8
0
  6
Continuous
 62
     7
100
AcDbLine
 10
7525.626032125
 20
4948.4498806558
 30
0.0
 11
7571.6260508409
 21
4948.4498806558
 31
0.0
  0
LINE
  5
2F6
330
1F
100
AcDbEntity
  8
0
  6
Continuous
 62
     7
100
AcDbLine
 10
5658.7187556222
 20
4389.4652825221
 30
0.0
 11
5658.7187556222
 21
4389.0852731093
 31
0.0
  0
LINE
  5
2F7
330
1F
100
AcDbEntity
  8
0
  6
Continuous
 62
     7
100
AcDbLine
 10
5666.3187650636
 20
4389.0852731093
 30
0.0
 11
5666.3187650636
 21
4389.4652825221
 31
0.0
  0
LINE
  5
2F8
330
1F
100
AcDbEntity
  8
0
  6
Continuous
 62
     7
100
AcDbLine
 10
5798.7187413171
 20
4389.4652825221
 30
0.0
 11
5798.7187413171
 21
4389.0852731093
 31
0.0
  0
LINE
  5
2F9
330
1F
100
AcDbEntity
  8
0
  6
Continuous
 62
     7
100
AcDbLine
 10
5806.3187507585
 20
4389.0852731093
 30
0.0
 11
5806.3187507585
 21
4389.4652825221
 31
0.0
  0
LINE
  5
2FA
330
1F
100
AcDbEntity
  8
0
  6
Continuous
 62
     7
100
AcDbLine
 10
5841.5187505677
 20
4389.0852731093
 30
0.0
 11
5841.5187505677
 21
4389.2536860331
 31
0.0
  0
LINE
  5
2FB
330
1F
100
AcDbEntity
  8
0
  6
Continuous
 62
     7
100
AcDbLine
 10
5761.518767257
 20
4389.2536860331
 30
0.0
 11
5761.518767257
 21
4389.0852731093
 31
0.0
  0
LINE
  5
2FC
330
1F
100
AcDbEntity
  8
0
  6
Continuous
 62
     7
100
AcDbLine
 10
5821.5187696412
 20
4389.2536860331
 30
0.0
 11
5821.5187696412
 21
4399.2536764964
 31
0.0
  0
LINE
  5
2FD
330
1F
100
AcDbEntity
  8
0
  6
Continuous
 62
     7
100
AcDbLine
 10
5781.5187481835
 20
4399.2536764964
 30
0.0
 11
5781.5187481835
 21
4389.2536860331
 31
0.0
  0
LINE
  5
2FE
330
1F
100
AcDbEntity
  8
0
  6
Continuous
 62
     7
100
AcDbLine
 10
6604.0187684491
 20
4336.5852933749
 30
0.0
 11
6604.0187684491
 21
4339.0852909907
 31
0.0
  0
LINE
  5
2FF
330
1F
100
AcDbEntity
  8
0
  6
Continuous
 62
     7
100
AcDbLine
 10
6544.0187660649
 20
4339.0852909907
 30
0.0
 11
6544.0187660649
 21
4336.5852933749
 31
0.0
  0
LINE
  5
300
330
1F
100
AcDbEntity
  8
0
  6
Continuous
 62
     7
100
AcDbLine
 10
6544.0187660649
 20
4336.5852933749
 30
0.0
 11
6544.5187596276
 21
4336.0852700099
 31
0.0
  0
LINE
  5
301
330
1F
100
AcDbEntity
  8
0
  6
Continuous
 62
     7
100
AcDbLine
 10
6603.5187450841
 20
4336.0852700099
 30
0.0
 11
6604.0187684491
 21
4336.5852933749
 31
0.0
  0
LINE
  5
302
330
1F
100
AcDbEntity
  8
0
  6
Continuous
 62
     7
100
AcDbLine
 10
6004.0187446073
 20
4336.5852933749
 30
0.0
 11
6004.0187446073
 21
4339.0852909907
 31
0.0
  0
LINE
  5
303
330
1F
100
AcDbEntity
  8
0
  6
Continuous
 62
     7
100
AcDbLine
 10
5944.0187422231
 20
4339.0852909907
 30
0.0
 11
5944.0187422231
 21
4336.5852933749
 31
0.0
  0
LINE
  5
304
330
1F
100
AcDbEntity
  8
0
  6
Continuous
 62
     7
100
AcDbLine
 10
5944.0187422231
 20
4336.5852933749
 30
0.0
 11
5944.5187655881
 21
4336.0852700099
 31
0.0
  0
LINE
  5
305
330
1F
100
AcDbEntity
  8
0
  6
Continuous
 62
     7
100
AcDbLine
 10
6003.5187510446
 20
4336.0852700099
 30
0.0
 11
6004.0187446073
 21
4336.5852933749
 31
0.0
  0
LINE
  5
306
330
1F
100
AcDbEntity
  8
0
  6
Continuous
 62
     7
100
AcDbLine
 10
6560.0187686875
 20
4336.0852700099
 30
0.0
 11
6560.0187686875
 21
4171.0852783545
 31
0.0
  0
LINE
  5
307
330
1F
100
AcDbEntity
  8
0
  6
Continuous
 62
     7
100
AcDbLine
 10
6588.0187658265
 20
4171.0852783545
 30
0.0
 11
6588.0187658265
 21
4336.0852700099
 31
0.0
  0
LINE
  5
308
330
1F
100
AcDbEntity
  8
0
  6
Continuous
 62
     7
100
AcDbLine
 10
6560.0187686875
 20
4171.0852783545
 30
0.0
 11
6561.0187558129
 21
4170.0852912291
 31
0.0
  0
LINE
  5
309
330
1F
100
AcDbEntity
  8
0
  6
Continuous
 62
     7
100
AcDbLine
 10
6587.0187488988
 20
4170.0852912291
 30
0.0
 11
6588.0187658265
 21
4171.0852783545
 31
0.0
  0
LINE
  5
30A
330
1F
100
AcDbEntity
  8
0
  6
Continuous
 62
     7
100
AcDbLine
 10
5960.0187448457
 20
4336.0852700099
 30
0.0
 11
5960.0187448457
 21
4171.0852783545
 31
0.0
  0
LINE
  5
30B
330
1F
100
AcDbEntity
  8
0
  6
Continuous
 62
     7
100
AcDbLine
 10
5988.0187419847
 20
4171.0852783545
 30
0.0
 11
5988.0187419847
 21
4336.0852700099
 31
0.0
  0
LINE
  5
30C
330
1F
100
AcDbEntity
  8
0
  6
Continuous
 62
     7
100
AcDbLine
 10
5960.0187448457
 20
4171.0852783545
 30
0.0
 11
5961.0187617734
 21
4170.0852912291
 31
0.0
  0
LINE
  5
30D
330
1F
100
AcDbEntity
  8
0
  6
Continuous
 62
     7
100
AcDbLine
 10
5987.0187548593
 20
4170.0852912291
 30
0.0
 11
5988.0187419847
 21
4171.0852783545
 31
0.0
  0
LINE
  5
30E
330
1F
100
AcDbEntity
  8
0
  6
Continuous
 62
     7
100
AcDbLine
 10
6852.3687628701
 20
3908.9852838407
 30
0.0
 11
5695.6687478021
 21
3908.9852838407
 31
0.0
  0
LINE
  5
30F
330
1F
100
AcDbEntity
  8
0
  6
Continuous
 62
     7
100
AcDbLine
 10
5695.6687478021
 20
3908.9852838407
 30
0.0
 11
5695.6687478021
 21
3909.0852838382
 31
0.0
  0
LINE
  5
310
330
1F
100
AcDbEntity
  8
0
  6
Continuous
 62
     7
100
AcDbLine
 10
6852.3687628701
 20
3908.9852838407
 30
0.0
 11
6852.3687628701
 21
3909.0852838382
 31
0.0
  0
LINE
  5
311
330
1F
100
AcDbEntity
  8
0
  6
Continuous
 62
     7
100
AcDbLine
 10
5695.1030401185
 20
3909.0852838382
 30
0.0
 11
5695.3468827203
 21
3909.0169881275
 31
0.0
  0
LINE
  5
312
330
1F
100
AcDbEntity
  8
0
  6
Continuous
 62
     7
100
AcDbLine
 10
5695.3468827203
 20
3909.0169881275
 30
0.0
 11
5695.6687478021
 21
3908.9852838407
 31
0.0
  0
LINE
  5
313
330
1F
100
AcDbEntity
  8
0
  6
Continuous
 62
     7
100
AcDbLine
 10
6852.3687628701
 20
3908.9852838407
 30
0.0
 11
6852.6906279519
 21
3909.0169881275
 31
0.0
  0
LINE
  5
314
330
1F
100
AcDbEntity
  8
0
  6
Continuous
 62
     7
100
AcDbLine
 10
6852.6906279519
 20
3909.0169881275
 30
0.0
 11
6852.9344705537
 21
3909.0852838382
 31
0.0
  0
LINE
  5
315
330
1F
100
AcDbEntity
  8
0
  6
Continuous
 62
     7
100
AcDbLine
 10
6899.0187553361
 20
4389.0852731093
 30
0.0
 11
6897.0187810853
 21
4389.0852731093
 31
0.0
  0
LINE
  5
316
330
1F
100
AcDbEntity
  8
0
  6
Continuous
 62
     7
100
AcDbLine
 10
6899.0187553361
 20
4386.427889429
 30
0.0
 11
6897.0187810853
 21
4386.427889429
 31
0.0
  0
LINE
  5
317
330
1F
100
AcDbEntity
  8
0
  6
Continuous
 62
     7
100
AcDbLine
 10
6897.0187810853
 20
4389.0852731093
 30
0.0
 11
6897.0187810853
 21
4386.427889429
 31
0.0
  0
LINE
  5
318
330
1F
100
AcDbEntity
  8
0
  6
Continuous
 62
     7
100
AcDbLine
 10
6899.0187553361
 20
4389.0852731093
 30
0.0
 11
6899.0187553361
 21
4386.427889429
 31
0.0
  0
LINE
  5
319
330
1F
100
AcDbEntity
  8
0
  6
Continuous
 62
     7
100
AcDbLine
 10
6899.0187553361
 20
4340.8278923854
 30
0.0
 11
6897.0187810853
 21
4340.8278923854
 31
0.0
  0
LINE
  5
31A
330
1F
100
AcDbEntity
  8
0
  6
Continuous
 62
     7
100
AcDbLine
 10
6897.0187810853
 20
4386.427889429
 30
0.0
 11
6897.0187810853
 21
4340.8278923854
 31
0.0
  0
LINE
  5
31B
330
1F
100
AcDbEntity
  8
0
  6
Continuous
 62
     7
100
AcDbLine
 10
6899.0187553361
 20
4386.427889429
 30
0.0
 11
6899.0187553361
 21
4340.8278923854
 31
0.0
  0
LINE
  5
31C
330
1F
100
AcDbEntity
  8
0
  6
Continuous
 62
     7
100
AcDbLine
 10
6899.0187553361
 20
4339.0852909907
 30
0.0
 11
6897.0187810853
 21
4339.0852909907
 31
0.0
  0
LINE
  5
31D
330
1F
100
AcDbEntity
  8
0
  6
Continuous
 62
     7
100
AcDbLine
 10
6897.0187810853
 20
4340.8278923854
 30
0.0
 11
6897.0187810853
 21
4339.0852909907
 31
0.0
  0
LINE
  5
31E
330
1F
100
AcDbEntity
  8
0
  6
Continuous
 62
     7
100
AcDbLine
 10
6899.0187553361
 20
4340.8278923854
 30
0.0
 11
6899.0187553361
 21
4339.0852909907
 31
0.0
  0
LINE
  5
31F
330
1F
100
AcDbEntity
  8
0
  6
Continuous
 62
     7
100
AcDbLine
 10
6899.0187553361
 20
3911.2852838262
 30
0.0
 11
6897.0187810853
 21
3911.2852838262
 31
0.0
  0
LINE
  5
320
330
1F
100
AcDbEntity
  8
0
  6
Continuous
 62
     7
100
AcDbLine
 10
6897.0187810853
 20
4339.0852909907
 30
0.0
 11
6897.0187810853
 21
3911.2852838262
 31
0.0
  0
LINE
  5
321
330
1F
100
AcDbEntity
  8
0
  6
Continuous
 62
     7
100
AcDbLine
 10
6899.0187553361
 20
4339.0852909907
 30
0.0
 11
6899.0187553361
 21
3911.2852838262
 31
0.0
  0
LINE
  5
322
330
1F
100
AcDbEntity
  8
0
  6
Continuous
 62
     7
100
AcDbLine
 10
6899.0187553361
 20
3909.0852838382
 30
0.0
 11
6897.0187810853
 21
3909.0852838382
 31
0.0
  0
LINE
  5
323
330
1F
100
AcDbEntity
  8
0
  6
Continuous
 62
     7
100
AcDbLine
 10
6897.0187810853
 20
3911.2852838262
 30
0.0
 11
6897.0187810853
 21
3909.0852838382
 31
0.0
  0
LINE
  5
324
330
1F
100
AcDbEntity
  8
0
  6
Continuous
 62
     7
100
AcDbLine
 10
6899.0187553361
 20
3911.2852838262
 30
0.0
 11
6899.0187553361
 21
3909.0852838382
 31
0.0
  0
LINE
  5
325
330
1F
100
AcDbEntity
  8
0
  6
Continuous
 62
     7
100
AcDbLine
 10
6896.6997770265
 20
3909.0852838382
 30
0.0
 11
6896.5235260919
 21
3909.0448494681
 31
0.0
  0
LINE
  5
326
330
1F
100
AcDbEntity
  8
0
  6
Continuous
 62
     7
100
AcDbLine
 10
6896.5235260919
 20
3909.0448494681
 30
0.0
 11
6895.918777366
 21
3908.9852838407
 31
0.0
  0
LINE
  5
327
330
1F
100
AcDbEntity
  8
0
  6
Continuous
 62
     7
100
AcDbLine
 10
6895.918777366
 20
3908.9852838407
 30
0.0
 11
6857.1187762216
 21
3908.9852838407
 31
0.0
  0
LINE
  5
328
330
1F
100
AcDbEntity
  8
0
  6
Continuous
 62
     7
100
AcDbLine
 10
6856.3377169564
 20
3909.0852838382
 30
0.0
 11
6856.513967891
 21
3909.0448494681
 31
0.0
  0
LINE
  5
329
330
1F
100
AcDbEntity
  8
0
  6
Continuous
 62
     7
100
AcDbLine
 10
6856.513967891
 20
3909.0448494681
 30
0.0
 11
6857.1187762216
 21
3908.9852838407
 31
0.0
  0
LINE
  5
32A
330
1F
100
AcDbEntity
  8
0
  6
Continuous
 62
     7
100
AcDbLine
 10
5649.0187553361
 20
4386.427889429
 30
0.0
 11
5651.0187295869
 21
4386.427889429
 31
0.0
  0
LINE
  5
32B
330
1F
100
AcDbEntity
  8
0
  6
Continuous
 62
     7
100
AcDbLine
 10
5649.0187553361
 20
4389.0852731093
 30
0.0
 11
5651.0187295869
 21
4389.0852731093
 31
0.0
  0
LINE
  5
32C
330
1F
100
AcDbEntity
  8
0
  6
Continuous
 62
     7
100
AcDbLine
 10
5649.0187553361
 20
4389.0852731093
 30
0.0
 11
5649.0187553361
 21
4386.427889429
 31
0.0
  0
LINE
  5
32D
330
1F
100
AcDbEntity
  8
0
  6
Continuous
 62
     7
100
AcDbLine
 10
5651.0187295869
 20
4389.0852731093
 30
0.0
 11
5651.0187295869
 21
4386.427889429
 31
0.0
  0
LINE
  5
32E
330
1F
100
AcDbEntity
  8
0
  6
Continuous
 62
     7
100
AcDbLine
 10
5649.0187553361
 20
4340.8278923854
 30
0.0
 11
5651.0187295869
 21
4340.8278923854
 31
0.0
  0
LINE
  5
32F
330
1F
100
AcDbEntity
  8
0
  6
Continuous
 62
     7
100
AcDbLine
 10
5649.0187553361
 20
4386.427889429
 30
0.0
 11
5649.0187553361
 21
4340.8278923854
 31
0.0
  0
LINE
  5
330
330
1F
100
AcDbEntity
  8
0
  6
Continuous
 62
     7
100
AcDbLine
 10
5651.0187295869
 20
4386.427889429
 30
0.0
 11
5651.0187295869
 21
4340.8278923854
 31
0.0
  0
LINE
  5
331
330
1F
100
AcDbEntity
  8
0
  6
Continuous
 62
     7
100
AcDbLine
 10
5649.0187553361
 20
4339.0852909907
 30
0.0
 11
5651.0187295869
 21
4339.0852909907
 31
0.0
  0
LINE
  5
332
330
1F
100
AcDbEntity
  8
0
  6
Continuous
 62
     7
100
AcDbLine
 10
5649.0187553361
 20
4340.8278923854
 30
0.0
 11
5649.0187553361
 21
4339.0852909907
 31
0.0
  0
LINE
  5
333
330
1F
100
AcDbEntity
  8
0
  6
Continuous
 62
     7
100
AcDbLine
 10
5651.0187295869
 20
4340.8278923854
 30
0.0
 11
5651.0187295869
 21
4339.0852909907
 31
0.0
  0
LINE
  5
334
330
1F
100
AcDbEntity
  8
0
  6
Continuous
 62
     7
100
AcDbLine
 10
5649.0187553361
 20
3911.2852838262
 30
0.0
 11
5651.0187295869
 21
3911.2852838262
 31
0.0
  0
LINE
  5
335
330
1F
100
AcDbEntity
  8
0
  6
Continuous
 62
     7
100
AcDbLine
 10
5649.0187553361
 20
4339.0852909907
 30
0.0
 11
5649.0187553361
 21
3911.2852838262
 31
0.0
  0
LINE
  5
336
330
1F
100
AcDbEntity
  8
0
  6
Continuous
 62
     7
100
AcDbLine
 10
5651.0187295869
 20
4339.0852909907
 30
0.0
 11
5651.0187295869
 21
3911.2852838262
 31
0.0
  0
LINE
  5
337
330
1F
100
AcDbEntity
  8
0
  6
Continuous
 62
     7
100
AcDbLine
 10
5649.0187553361
 20
3909.0852838382
 30
0.0
 11
5651.0187295869
 21
3909.0852838382
 31
0.0
  0
LINE
  5
338
330
1F
100
AcDbEntity
  8
0
  6
Continuous
 62
     7
100
AcDbLine
 10
5649.0187553361
 20
3911.2852838262
 30
0.0
 11
5649.0187553361
 21
3909.0852838382
 31
0.0
  0
LINE
  5
339
330
1F
100
AcDbEntity
  8
0
  6
Continuous
 62
     7
100
AcDbLine
 10
5651.0187295869
 20
3911.2852838262
 30
0.0
 11
5651.0187295869
 21
3909.0852838382
 31
0.0
  0
LINE
  5
33A
330
1F
100
AcDbEntity
  8
0
  6
Continuous
 62
     7
100
AcDbLine
 10
5651.3377336457
 20
3909.0852838382
 30
0.0
 11
5651.5139845803
 21
3909.0448494681
 31
0.0
  0
LINE
  5
33B
330
1F
100
AcDbEntity
  8
0
  6
Continuous
 62
     7
100
AcDbLine
 10
5651.5139845803
 20
3909.0448494681
 30
0.0
 11
5652.1187333062
 21
3908.9852838407
 31
0.0
  0
LINE
  5
33C
330
1F
100
AcDbEntity
  8
0
  6
Continuous
 62
     7
100
AcDbLine
 10
5652.1187333062
 20
3908.9852838407
 30
0.0
 11
5690.9187344506
 21
3908.9852838407
 31
0.0
  0
LINE
  5
33D
330
1F
100
AcDbEntity
  8
0
  6
Continuous
 62
     7
100
AcDbLine
 10
5691.6997937158
 20
3909.0852838382
 30
0.0
 11
5691.5235427812
 21
3909.0448494681
 31
0.0
  0
LINE
  5
33E
330
1F
100
AcDbEntity
  8
0
  6
Continuous
 62
     7
100
AcDbLine
 10
5691.5235427812
 20
3909.0448494681
 30
0.0
 11
5690.9187344506
 21
3908.9852838407
 31
0.0
  0
LINE
  5
33F
330
1F
100
AcDbEntity
  8
0
  6
Continuous
 62
     7
100
AcDbLine
 10
6897.0187810853
 20
4389.0852731093
 30
0.0
 11
5651.0187295869
 21
4389.0852731093
 31
0.0
  0
LINE
  5
340
330
1F
100
AcDbEntity
  8
0
  6
Continuous
 62
     7
100
AcDbLine
 10
5651.0187295869
 20
4386.427889429
 30
0.0
 11
6897.0187810853
 21
4386.427889429
 31
0.0
  0
LINE
  5
341
330
1F
100
AcDbEntity
  8
0
  6
Continuous
 62
     7
100
AcDbLine
 10
6897.0187810853
 20
4340.8278923854
 30
0.0
 11
5651.0187295869
 21
4340.8278923854
 31
0.0
  0
LINE
  5
342
330
1F
100
AcDbEntity
  8
0
  6
Continuous
 62
     7
100
AcDbLine
 10
5651.0187295869
 20
4339.0852909907
 30
0.0
 11
6897.0187810853
 21
4339.0852909907
 31
0.0
  0
LINE
  5
343
330
1F
100
AcDbEntity
  8
0
  6
Continuous
 62
     7
100
AcDbLine
 10
6897.0187810853
 20
3954.0852856263
 30
0.0
 11
5651.0187295869
 21
3954.0852856263
 31
0.0
  0
LINE
  5
344
330
1F
100
AcDbEntity
  8
0
  6
Continuous
 62
     7
100
AcDbLine
 10
5651.0187295869
 20
3951.8852856382
 30
0.0
 11
6897.0187810853
 21
3951.8852856382
 31
0.0
  0
LINE
  5
345
330
1F
100
AcDbEntity
  8
0
  6
Continuous
 62
     7
100
AcDbLine
 10
6897.0187810853
 20
3911.2852838262
 30
0.0
 11
5651.0187295869
 21
3911.2852838262
 31
0.0
  0
LINE
  5
346
330
1F
100
AcDbEntity
  8
0
  6
Continuous
 62
     7
100
AcDbLine
 10
6897.0187810853
 20
3911.2852838262
 30
0.0
 11
6897.0187810853
 21
3951.8852856382
 31
0.0
  0
LINE
  5
347
330
1F
100
AcDbEntity
  8
0
  6
Continuous
 62
     7
100
AcDbLine
 10
5651.0187295869
 20
3911.2852838262
 30
0.0
 11
5651.0187295869
 21
3951.8852856382
 31
0.0
  0
LINE
  5
348
330
1F
100
AcDbEntity
  8
0
  6
Continuous
 62
     7
100
AcDbLine
 10
5651.0187295869
 20
3909.0852838382
 30
0.0
 11
6897.0187810853
 21
3909.0852838382
 31
0.0
  0
LINE
  5
349
330
1F
100
AcDbEntity
  8
0
  6
Continuous
 62
     7
100
AcDbLine
 10
6897.0187810853
 20
3954.427732937
 30
0.0
 11
5651.0187295869
 21
3954.427732937
 31
0.0
  0
LINE
  5
34A
330
1F
100
AcDbEntity
  8
0
  6
Continuous
 62
     7
100
AcDbLine
 10
5651.0187295869
 20
4079.8027467355
 30
0.0
 11
6897.0187810853
 21
4079.8027467355
 31
0.0
  0
LINE
  5
34B
330
1F
100
AcDbEntity
  8
0
  6
Continuous
 62
     7
100
AcDbLine
 10
6897.0187810853
 20
4080.4602902755
 30
0.0
 11
5651.0187295869
 21
4080.4602902755
 31
0.0
  0
LINE
  5
34C
330
1F
100
AcDbEntity
  8
0
  6
Continuous
 62
     7
100
AcDbLine
 10
5662.7246645883
 20
4389.4652825221
 30
0.0
 11
5666.3187650636
 21
4389.4652825221
 31
0.0
  0
LINE
  5
34D
330
1F
100
AcDbEntity
  8
0
  6
Continuous
 62
     7
100
AcDbLine
 10
5658.7187556222
 20
4389.4652825221
 30
0.0
 11
5662.7246645883
 21
4389.4652825221
 31
0.0
  0
LINE
  5
34E
330
1F
100
AcDbEntity
  8
0
  6
Continuous
 62
     7
100
AcDbLine
 10
5662.6216677621
 20
4391.285280548
 30
0.0
 11
5664.4187478021
 21
4391.285280548
 31
0.0
  0
LINE
  5
34F
330
1F
100
AcDbEntity
  8
0
  6
Continuous
 62
     7
100
AcDbLine
 10
5660.6187728837
 20
4391.285280548
 30
0.0
 11
5662.6216677621
 21
4391.285280548
 31
0.0
  0
LINE
  5
350
330
1F
100
AcDbEntity
  8
0
  6
Continuous
 62
     7
100
AcDbLine
 10
5800.3656772569
 20
4389.4652825221
 30
0.0
 11
5806.3187507585
 21
4389.4652825221
 31
0.0
  0
LINE
  5
351
330
1F
100
AcDbEntity
  8
0
  6
Continuous
 62
     7
100
AcDbLine
 10
5798.7187413171
 20
4389.4652825221
 30
0.0
 11
5800.3656772569
 21
4389.4652825221
 31
0.0
  0
LINE
  5
352
330
1F
100
AcDbEntity
  8
0
  6
Continuous
 62
     7
100
AcDbLine
 10
5801.4422265485
 20
4391.285280548
 30
0.0
 11
5804.4187632993
 21
4391.285280548
 31
0.0
  0
LINE
  5
353
330
1F
100
AcDbEntity
  8
0
  6
Continuous
 62
     7
100
AcDbLine
 10
5800.6187585786
 20
4391.285280548
 30
0.0
 11
5801.4422265485
 21
4391.285280548
 31
0.0
  0
LINE
  5
354
330
1F
100
AcDbEntity
  8
0
  6
Continuous
 62
     7
100
AcDbLine
 10
5800.7687553361
 20
4151.7814362609
 30
0.0
 11
5800.7687553361
 21
4141.3891314155
 31
0.0
  0
LINE
  5
355
330
1F
100
AcDbEntity
  8
0
  6
Continuous
 62
     7
100
AcDbLine
 10
5802.2687553361
 20
4141.3891314155
 30
0.0
 11
5802.2687553361
 21
4151.7814362609
 31
0.0
  0
LINE
  5
356
330
1F
100
AcDbEntity
  8
0
  6
Continuous
 62
     7
100
AcDbLine
 10
5838.4678868249
 20
4389.2536860331
 30
0.0
 11
5806.3187507585
 21
4389.2536860331
 31
0.0
  0
LINE
  5
357
330
1F
100
AcDbEntity
  8
0
  6
Continuous
 62
     7
100
AcDbLine
 10
5798.7187413171
 20
4389.2536860331
 30
0.0
 11
5761.518767257
 21
4389.2536860331
 31
0.0
  0
LINE
  5
358
330
1F
100
AcDbEntity
  8
0
  6
Continuous
 62
     7
100
AcDbLine
 10
5841.5187505677
 20
4389.2536860331
 30
0.0
 11
5838.4678868249
 21
4389.2536860331
 31
0.0
  0
LINE
  5
359
330
1F
100
AcDbEntity
  8
0
  6
Continuous
 62
     7
100
AcDbLine
 10
5819.9933079675
 20
4399.2536764964
 30
0.0
 11
5781.5187481835
 21
4399.2536764964
 31
0.0
  0
LINE
  5
35A
330
1F
100
AcDbEntity
  8
0
  6
Continuous
 62
     7
100
AcDbLine
 10
5821.5187696412
 20
4399.2536764964
 30
0.0
 11
5819.9933079675
 21
4399.2536764964
 31
0.0
  0
LINE
  5
35B
330
1F
100
AcDbEntity
  8
0
  6
Continuous
 62
     7
100
AcDbLine
 10
5789.4717363313
 20
4138.5156464204
 30
0.0
 11
5790.9452525571
 21
4136.6630446538
 31
0.0
  0
LINE
  5
35C
330
1F
100
AcDbEntity
  8
0
  6
Continuous
 62
     7
100
AcDbLine
 10
5790.9452525571
 20
4136.6630446538
 30
0.0
 11
5792.2195104554
 21
4135.4599099978
 31
0.0
  0
LINE
  5
35D
330
1F
100
AcDbEntity
  8
0
  6
Continuous
 62
     7
100
AcDbLine
 10
5810.8180073693
 20
4135.4599099978
 30
0.0
 11
5812.0922652677
 21
4136.6630446538
 31
0.0
  0
LINE
  5
35E
330
1F
100
AcDbEntity
  8
0
  6
Continuous
 62
     7
100
AcDbLine
 10
5812.0922652677
 20
4136.6630446538
 30
0.0
 11
5813.5657814935
 21
4138.5156464204
 31
0.0
  0
LINE
  5
35F
330
1F
100
AcDbEntity
  8
0
  6
Continuous
 62
     7
100
AcDbLine
 10
5814.5307806924
 20
4140.187064968
 30
0.0
 11
5815.3984157041
 21
4142.3894714936
 31
0.0
  0
LINE
  5
360
330
1F
100
AcDbEntity
  8
0
  6
Continuous
 62
     7
100
AcDbLine
 10
5815.3984157041
 20
4142.3894714936
 30
0.0
 11
5815.8032504514
 21
4144.0945964679
 31
0.0
  0
LINE
  5
361
330
1F
100
AcDbEntity
  8
0
  6
Continuous
 62
     7
100
AcDbLine
 10
5806.5040019944
 20
4160.2013510093
 30
0.0
 11
5804.8249093488
 21
4160.7033413276
 31
0.0
  0
LINE
  5
362
330
1F
100
AcDbEntity
  8
0
  6
Continuous
 62
     7
100
AcDbLine
 10
5804.8249093488
 20
4160.7033413276
 30
0.0
 11
5802.4837581113
 21
4161.0531311854
 31
0.0
  0
LINE
  5
363
330
1F
100
AcDbEntity
  8
0
  6
Continuous
 62
     7
100
AcDbLine
 10
5800.5537597135
 20
4161.0531311854
 30
0.0
 11
5798.212608476
 21
4160.7033413276
 31
0.0
  0
LINE
  5
364
330
1F
100
AcDbEntity
  8
0
  6
Continuous
 62
     7
100
AcDbLine
 10
5798.212608476
 20
4160.7033413276
 30
0.0
 11
5796.5335158303
 21
4160.2013510093
 31
0.0
  0
LINE
  5
365
330
1F
100
AcDbEntity
  8
0
  6
Continuous
 62
     7
100
AcDbLine
 10
5787.2342673734
 20
4144.0945964679
 30
0.0
 11
5787.6391021207
 21
4142.3894714936
 31
0.0
  0
LINE
  5
366
330
1F
100
AcDbEntity
  8
0
  6
Continuous
 62
     7
100
AcDbLine
 10
5787.6391021207
 20
4142.3894714936
 30
0.0
 11
5788.5067371324
 21
4140.187064968
 31
0.0
  0
LINE
  5
367
330
1F
100
AcDbEntity
  8
0
  6
Continuous
 62
     7
100
AcDbLine
 10
5802.4837580988
 20
4155.6792954109
 30
0.0
 11
5802.4837580988
 21
4162.8907837351
 31
0.0
  0
LINE
  5
368
330
1F
100
AcDbEntity
  8
0
  6
Continuous
 62
     7
100
AcDbLine
 10
5816.1222247079
 20
4139.2682444676
 30
0.0
 11
5809.876909633
 21
4142.873997651
 31
0.0
  0
LINE
  5
369
330
1F
100
AcDbEntity
  8
0
  6
Continuous
 62
     7
100
AcDbLine
 10
5808.9119104341
 20
4141.2025642022
 30
0.0
 11
5815.157225509
 21
4137.59682592
 31
0.0
  0
LINE
  5
36A
330
1F
100
AcDbEntity
  8
0
  6
Continuous
 62
     7
100
AcDbLine
 10
5787.8802923158
 20
4137.59682592
 30
0.0
 11
5794.1256073907
 21
4141.2025642022
 31
0.0
  0
LINE
  5
36B
330
1F
100
AcDbEntity
  8
0
  6
Continuous
 62
     7
100
AcDbLine
 10
5793.1606081918
 20
4142.873997651
 30
0.0
 11
5786.9152633145
 21
4139.2682444676
 31
0.0
  0
LINE
  5
36C
330
1F
100
AcDbEntity
  8
0
  6
Continuous
 62
     7
100
AcDbLine
 10
5800.553759701
 20
4162.8907841569
 30
0.0
 11
5800.553759701
 21
4155.6792958327
 31
0.0
  0
LINE
  5
36D
330
1F
100
AcDbEntity
  8
0
  6
Continuous
 62
     7
100
AcDbLine
 10
6546.3404265836
 20
4336.5852933749
 30
0.0
 11
6604.0187684491
 21
4336.5852933749
 31
0.0
  0
LINE
  5
36E
330
1F
100
AcDbEntity
  8
0
  6
Continuous
 62
     7
100
AcDbLine
 10
6544.0187660649
 20
4336.5852933749
 30
0.0
 11
6546.3404265836
 21
4336.5852933749
 31
0.0
  0
LINE
  5
36F
330
1F
100
AcDbEntity
  8
0
  6
Continuous
 62
     7
100
AcDbLine
 10
6546.8017367318
 20
4336.0852700099
 30
0.0
 11
6544.5187596276
 21
4336.0852700099
 31
0.0
  0
LINE
  5
370
330
1F
100
AcDbEntity
  8
0
  6
Continuous
 62
     7
100
AcDbLine
 10
6603.5187450841
 20
4336.0852700099
 30
0.0
 11
6546.8017367318
 21
4336.0852700099
 31
0.0
  0
LINE
  5
371
330
1F
100
AcDbEntity
  8
0
  6
Continuous
 62
     7
100
AcDbLine
 10
5946.340432544
 20
4336.5852933749
 30
0.0
 11
6004.0187446073
 21
4336.5852933749
 31
0.0
  0
LINE
  5
372
330
1F
100
AcDbEntity
  8
0
  6
Continuous
 62
     7
100
AcDbLine
 10
5944.0187422231
 20
4336.5852933749
 30
0.0
 11
5946.340432544
 21
4336.5852933749
 31
0.0
  0
LINE
  5
373
330
1F
100
AcDbEntity
  8
0
  6
Continuous
 62
     7
100
AcDbLine
 10
5946.8017426923
 20
4336.0852700099
 30
0.0
 11
5944.5187655881
 21
4336.0852700099
 31
0.0
  0
LINE
  5
374
330
1F
100
AcDbEntity
  8
0
  6
Continuous
 62
     7
100
AcDbLine
 10
6003.5187510446
 20
4336.0852700099
 30
0.0
 11
5946.8017426923
 21
4336.0852700099
 31
0.0
  0
LINE
  5
375
330
1F
100
AcDbEntity
  8
0
  6
Continuous
 62
     7
100
AcDbLine
 10
6560.0187686875
 20
4171.0852783545
 30
0.0
 11
6588.0187658265
 21
4171.0852783545
 31
0.0
  0
LINE
  5
376
330
1F
100
AcDbEntity
  8
0
  6
Continuous
 62
     7
100
AcDbLine
 10
6587.0187488988
 20
4170.0852912291
 30
0.0
 11
6561.0187558129
 21
4170.0852912291
 31
0.0
  0
LINE
  5
377
330
1F
100
AcDbEntity
  8
0
  6
Continuous
 62
     7
100
AcDbLine
 10
5960.0187448457
 20
4171.0852783545
 30
0.0
 11
5988.0187419847
 21
4171.0852783545
 31
0.0
  0
LINE
  5
378
330
1F
100
AcDbEntity
  8
0
  6
Continuous
 62
     7
100
AcDbLine
 10
5987.0187548593
 20
4170.0852912291
 30
0.0
 11
5961.0187617734
 21
4170.0852912291
 31
0.0
  0
LINE
  5
379
330
1F
100
AcDbEntity
  8
0
  6
Continuous
 62
     7
100
AcDbLine
 10
6895.918777366
 20
3909.0852838382
 30
0.0
 11
6895.918777366
 21
3908.9852838407
 31
0.0
  0
LINE
  5
37A
330
1F
100
AcDbEntity
  8
0
  6
Continuous
 62
     7
100
AcDbLine
 10
6857.1187762216
 20
3909.0852838382
 30
0.0
 11
6857.1187762216
 21
3908.9852838407
 31
0.0
  0
LINE
  5
37B
330
1F
100
AcDbEntity
  8
0
  6
Continuous
 62
     7
100
AcDbLine
 10
5652.1187333062
 20
3909.0852838382
 30
0.0
 11
5652.1187333062
 21
3908.9852838407
 31
0.0
  0
LINE
  5
37C
330
1F
100
AcDbEntity
  8
0
  6
Continuous
 62
     7
100
AcDbLine
 10
5690.9187344506
 20
3909.0852838382
 30
0.0
 11
5690.9187344506
 21
3908.9852838407
 31
0.0
  0
LINE
  5
37D
330
1F
100
AcDbEntity
  8
0
  6
Continuous
 62
     7
100
AcDbLine
 10
5651.0187295869
 20
4338.7428325042
 30
0.0
 11
5944.0187422231
 21
4338.7428325042
 31
0.0
  0
LINE
  5
37E
330
1F
100
AcDbEntity
  8
0
  6
Continuous
 62
     7
100
AcDbLine
 10
6004.0187446073
 20
4338.7428325042
 30
0.0
 11
6544.0187660649
 21
4338.7428325042
 31
0.0
  0
LINE
  5
37F
330
1F
100
AcDbEntity
  8
0
  6
Continuous
 62
     7
100
AcDbLine
 10
6604.0187684491
 20
4338.7428325042
 30
0.0
 11
6897.0187810853
 21
4338.7428325042
 31
0.0
  0
LINE
  5
380
330
1F
100
AcDbEntity
  8
0
  6
Continuous
 62
     7
100
AcDbLine
 10
6897.0187810853
 20
4213.3678298816
 30
0.0
 11
6588.0187658265
 21
4213.3678298816
 31
0.0
  0
LINE
  5
381
330
1F
100
AcDbEntity
  8
0
  6
Continuous
 62
     7
100
AcDbLine
 10
6560.0187686875
 20
4213.3678298816
 30
0.0
 11
5988.0187419847
 21
4213.3678298816
 31
0.0
  0
LINE
  5
382
330
1F
100
AcDbEntity
  8
0
  6
Continuous
 62
     7
100
AcDbLine
 10
5960.0187448457
 20
4213.3678298816
 30
0.0
 11
5651.0187295869
 21
4213.3678298816
 31
0.0
  0
LINE
  5
383
330
1F
100
AcDbEntity
  8
0
  6
Continuous
 62
     7
100
AcDbLine
 10
5651.0187295869
 20
4212.7102714404
 30
0.0
 11
5960.0187448457
 21
4212.7102714404
 31
0.0
  0
LINE
  5
384
330
1F
100
AcDbEntity
  8
0
  6
Continuous
 62
     7
100
AcDbLine
 10
5988.0187419847
 20
4212.7102714404
 30
0.0
 11
6560.0187686875
 21
4212.7102714404
 31
0.0
  0
LINE
  5
385
330
1F
100
AcDbEntity
  8
0
  6
Continuous
 62
     7
100
AcDbLine
 10
6588.0187658265
 20
4212.7102714404
 30
0.0
 11
6897.0187810853
 21
4212.7102714404
 31
0.0
  0
LWPOLYLINE
  5
386
330
1F
100
AcDbEntity
  8
0
  6
Continuous
 62
     7
100
AcDbPolyline
 90
        5
 70
   128
 43
0.0
 10
5966.4649963379
 20
5306.3657962046
 10
5962.7717545886
 20
5307.8701816952
 10
5961.1692116575
 20
5311.6713856249
 10
5962.7743136232
 20
5315.4657451114
 10
5966.4687422708
 20
5316.9657968244
  0
LWPOLYLINE
  5
387
330
1F
100
AcDbEntity
  8
0
  6
Continuous
 62
     7
100
AcDbPolyline
 90
        5
 70
   128
 43
0.0
 10
5981.5673828125
 20
5316.9657968244
 10
5985.2638730863
 20
5315.4652789567
 10
5986.8685565269
 20
5311.6628028839
 10
5985.2644580368
 20
5307.8668682992
 10
5981.5687445596
 20
5306.3657962046
  0
LWPOLYLINE
  5
388
330
1F
100
AcDbEntity
  8
0
  6
Continuous
 62
     7
100
AcDbPolyline
 90
        5
 70
   128
 43
0.0
 10
6566.4672851562
 20
5306.3657962046
 10
6562.7717591514
 20
5307.8701713808
 10
6561.1692023433
 20
5311.6713834557
 10
6562.7743163912
 20
5315.4657570151
 10
6566.4687661126
 20
5316.9657968244
  0
LWPOLYLINE
  5
389
330
1F
100
AcDbEntity
  8
0
  6
Continuous
 62
     7
100
AcDbPolyline
 90
        5
 70
   128
 43
0.0
 10
6581.5658569336
 20
5316.9657968244
 10
6585.2638782541
 20
5315.46526803
 10
6586.8685479722
 20
5311.6628065978
 10
6585.2644632279
 20
5307.8668791968
 10
6581.5687684014
 20
5306.3657962046
  0
LWPOLYLINE
  5
38A
330
1F
100
AcDbEntity
  8
0
  6
Continuous
 62
     7
100
AcDbPolyline
 90
        3
 70
   128
 43
0.0
 10
5992.1836853027
 20
5321.3300042114
 10
5971.6066839769
 20
5320.412319586
 10
5955.8517543271
 20
5321.3300042114
  0
LWPOLYLINE
  5
38B
330
1F
100
AcDbEntity
  8
0
  6
Continuous
 62
     7
100
AcDbPolyline
 90
        3
 70
   128
 43
0.0
 10
5992.1836853027
 20
5304.6015881262
 10
5993.990105765
 20
5314.0353681424
 10
5992.1857623056
 20
5321.3300042114
  0
LWPOLYLINE
  5
38C
330
1F
100
AcDbEntity
  8
0
  6
Continuous
 62
     7
100
AcDbPolyline
 90
        3
 70
   128
 43
0.0
 10
5955.8486938477
 20
5304.6015881262
 10
5976.4308317265
 20
5305.5192728202
 10
5992.1857623056
 20
5304.6015881262
  0
LWPOLYLINE
  5
38D
330
1F
100
AcDbEntity
  8
0
  6
Continuous
 62
     7
100
AcDbPolyline
 90
        3
 70
   128
 43
0.0
 10
5955.8486938477
 20
5321.3300042114
 10
5954.0474131651
 20
5311.8962242221
 10
5955.8517543271
 20
5304.6015881262
  0
LWPOLYLINE
  5
38E
330
1F
100
AcDbEntity
  8
0
  6
Continuous
 62
     7
100
AcDbPolyline
 90
        5
 70
   128
 43
0.0
 10
5966.5184020996
 20
5317.2657944522
 10
5962.6818843422
 20
5315.7042678846
 10
5961.0192406026
 20
5311.7599485872
 10
5962.6844972454
 20
5307.8228708048
 10
5966.5187505677
 20
5306.2657945118
  0
LWPOLYLINE
  5
38F
330
1F
100
AcDbEntity
  8
0
  6
Continuous
 62
     7
100
AcDbPolyline
 90
        5
 70
   128
 43
0.0
 10
5981.517791748
 20
5306.2657945118
 10
5985.3556283131
 20
5307.8273297417
 10
5987.0182789734
 20
5311.7716517694
 10
5985.3530177871
 20
5315.7087274672
 10
5981.5187660649
 20
5317.2657944522
  0
LWPOLYLINE
  5
390
330
1F
100
AcDbEntity
  8
0
  6
Continuous
 62
     7
100
AcDbPolyline
 90
        3
 70
   128
 43
0.0
 10
6592.1821594238
 20
5321.3300042114
 10
6571.6066789457
 20
5320.4123195174
 10
6555.8517483666
 20
5321.3300042114
  0
LWPOLYLINE
  5
391
330
1F
100
AcDbEntity
  8
0
  6
Continuous
 62
     7
100
AcDbPolyline
 90
        3
 70
   128
 43
0.0
 10
6592.1821594238
 20
5304.6015881262
 10
6593.9900975071
 20
5314.0353681155
 10
6592.1857563451
 20
5321.3300042114
  0
LWPOLYLINE
  5
392
330
1F
100
AcDbEntity
  8
0
  6
Continuous
 62
     7
100
AcDbPolyline
 90
        3
 70
   128
 43
0.0
 10
6555.850982666
 20
5304.6015881262
 10
6576.4308266953
 20
5305.5192727516
 10
6592.1857563451
 20
5304.6015881262
  0
LWPOLYLINE
  5
393
330
1F
100
AcDbEntity
  8
0
  6
Continuous
 62
     7
100
AcDbPolyline
 90
        3
 70
   128
 43
0.0
 10
6555.850982666
 20
5321.3300042114
 10
6554.0474049072
 20
5311.8962241952
 10
6555.8517483666
 20
5304.6015881262
  0
LWPOLYLINE
  5
394
330
1F
100
AcDbEntity
  8
0
  6
Continuous
 62
     7
100
AcDbPolyline
 90
        5
 70
   128
 43
0.0
 10
6566.5168762207
 20
5317.2657944522
 10
6562.6818814911
 20
5315.7042656717
 10
6561.0192320886
 20
5311.7599434233
 10
6562.6844934056
 20
5307.8228687677
 10
6566.5187446073
 20
5306.2657945118
  0
LWPOLYLINE
  5
395
330
1F
100
AcDbEntity
  8
0
  6
Continuous
 62
     7
100
AcDbPolyline
 90
        5
 70
   128
 43
0.0
 10
6581.5162658691
 20
5306.2657945118
 10
6585.355625462
 20
5307.8273275288
 10
6587.0182704594
 20
5311.7716466055
 10
6585.3530139473
 20
5315.7087254302
 10
6581.5187601045
 20
5317.2657944522
  0
LWPOLYLINE
  5
396
330
1F
100
AcDbEntity
  8
0
  6
Continuous
 62
     7
100
AcDbPolyline
 90
       12
 70
   128
 43
0.0
 10
7523.4031677246
 20
4932.2975285611
 10
7527.0471323466
 20
4907.0778414209
 10
7517.5251592806
 20
4892.2509890653
 10
7516.5377978183
 20
4891.006143714
 10
7516.4990262133
 20
4890.9577392934
 10
7516.4964627903
 20
4890.9545497842
 10
7516.4963125779
 20
4890.9543652419
 10
7516.4963071369
 20
4890.954359463
 10
7516.4964027584
 20
4890.9544815789
 10
7516.4966600016
 20
4890.9548055077
 10
7516.5016658663
 20
4890.9610716589
 10
7516.5209159961
 20
4890.9851320348
  0
LWPOLYLINE
  5
397
330
1F
100
AcDbEntity
  8
0
  6
Continuous
 62
     7
100
AcDbPolyline
 90
        3
 70
   128
 43
0.0
 10
7521.6255187988
 20
4934.949875649
 10
7522.2192483797
 20
4934.0907216076
 10
7523.4042987934
 20
4932.2975285611
  0
LINE
  5
398
330
1F
100
AcDbEntity
  8
0
  6
Continuous
 62
     7
100
AcDbLine
 10
7521.6255187988
 20
4934.949875649
 30
0.0
 11
7526.1562750449
 21
4934.949875649
 31
0.0
  0
LWPOLYLINE
  5
399
330
1F
100
AcDbEntity
  8
0
  6
Continuous
 62
     7
100
AcDbPolyline
 90
        5
 70
   128
 43
0.0
 10
7364.5553588867
 20
5306.3657962046
 10
7363.1170375992
 20
5307.8701816952
 10
7362.2790219489
 20
5311.6713856249
 10
7363.1187277996
 20
5315.4657451114
 10
7364.5557150951
 20
5316.9657968244
  0
LWPOLYLINE
  5
39A
330
1F
100
AcDbEntity
  8
0
  6
Continuous
 62
     7
100
AcDbPolyline
 90
        3
 70
   128
 43
0.0
 10
7358.1237792969
 20
5321.3300042114
 10
7356.17398908
 20
5311.8962242221
 10
7358.1260428539
 20
5304.6015881262
  0
LWPOLYLINE
  5
39B
330
1F
100
AcDbEntity
  8
0
  6
Continuous
 62
     7
100
AcDbPolyline
 90
       10
 70
   128
 43
0.0
 10
7365.4403686523
 20
5320.4081662259
 10
7365.4749884678
 20
5320.403679719
 10
7365.4751460694
 20
5320.4036590681
 10
7365.4751542372
 20
5320.403658062
 10
7365.4751555125
 20
5320.4036579797
 10
7365.4751371556
 20
5320.4036606175
 10
7365.4744175056
 20
5320.4037581387
 10
7365.4504994608
 20
5320.4069685836
 10
7365.0557896844
 20
5320.4596122348
 10
7358.1260428539
 20
5321.3300042114
  0
LWPOLYLINE
  5
39C
330
1F
100
AcDbEntity
  8
0
  6
Continuous
 62
     7
100
AcDbPolyline
 90
       11
 70
   128
 43
0.0
 10
7358.1237792969
 20
5304.6015881262
 10
7365.0598113759
 20
5305.4725154634
 10
7365.4191863751
 20
5305.5204459023
 10
7365.4447479948
 20
5305.5238660268
 10
7365.446470346
 20
5305.5240969626
 10
7365.4465280586
 20
5305.5241047947
 10
7365.4465307171
 20
5305.5241051717
 10
7365.4465308754
 20
5305.5241052143
 10
7365.4465238176
 20
5305.5241043134
 10
7365.4462882833
 20
5305.5240730732
 10
7365.4414401164
 20
5305.5234261117
  0
LWPOLYLINE
  5
39D
330
1F
100
AcDbEntity
  8
0
  6
Continuous
 62
     7
100
AcDbPolyline
 90
        5
 70
   128
 43
0.0
 10
7364.4180297852
 20
5317.2657944522
 10
7362.923655246
 20
5315.7042678846
 10
7362.0431260614
 20
5311.7599485872
 10
7362.9254041375
 20
5307.8228708048
 10
7364.420829784
 20
5306.2657945118
  0
LWPOLYLINE
  5
39E
330
1F
100
AcDbEntity
  8
0
  6
Continuous
 62
     7
100
AcDbPolyline
 90
        3
 70
   128
 43
0.0
 10
5990.9706115723
 20
4336.0852700099
 10
5989.4007484119
 20
4334.716340239
 10
5988.0187419847
 20
4333.851407133
  0
LWPOLYLINE
  5
39F
330
1F
100
AcDbEntity
  8
0
  6
Continuous
 62
     7
100
AcDbPolyline
 90
        3
 70
   128
 43
0.0
 10
5960.018157959
 20
4333.7773185595
 10
5958.3231606147
 20
4334.9687320126
 10
5957.1105746224
 20
4336.0852700099
  0
LWPOLYLINE
  5
3A0
330
1F
100
AcDbEntity
  8
0
  6
Continuous
 62
     7
100
AcDbPolyline
 90
        3
 70
   128
 43
0.0
 10
6590.9690856934
 20
4336.0852700099
 10
6589.4007610968
 20
4334.7163572899
 10
6588.0187658265
 20
4333.851407133
  0
LWPOLYLINE
  5
3A1
330
1F
100
AcDbEntity
  8
0
  6
Continuous
 62
     7
100
AcDbPolyline
 90
        3
 70
   128
 43
0.0
 10
6560.0166320801
 20
4333.7773185595
 10
6558.3227219761
 20
4334.9678733586
 10
6557.1105984643
 20
4336.0852700099
  0
ENDSEC
  0
SECTION
  2
OBJECTS
  0
DICTIONARY
  5
C
330
0
100
AcDbDictionary
281
     1
  3
ACAD_GROUP
350
D
  3
ACAD_LAYOUT
350
1A
  3
ACAD_MLINESTYLE
350
17
  3
ACAD_PLOTSETTINGS
350
19
  3
ACAD_PLOTSTYLENAME
350
E
  3
ACAD_SCALELIST
350
47
  3
DWGPROPS
350
3A2
  0
DICTIONARY
  5
D
102
{ACAD_REACTORS
330
C
102
}
330
C
100
AcDbDictionary
281
     1
  0
DICTIONARY
  5
1A
102
{ACAD_REACTORS
330
C
102
}
330
C
100
AcDbDictionary
281
     1
  3
Layout1
350
1E
  3
Layout2
350
26
  3
Model
350
22
  0
DICTIONARY
  5
17
102
{ACAD_REACTORS
330
C
102
}
330
C
100
AcDbDictionary
281
     1
  3
Standard
350
18
  0
DICTIONARY
  5
19
102
{ACAD_REACTORS
330
C
102
}
330
C
100
AcDbDictionary
281
     1
  0
ACDBDICTIONARYWDFLT
  5
E
102
{ACAD_REACTORS
330
C
102
}
330
C
100
AcDbDictionary
281
     1
  3
Normal
350
F
100
AcDbDictionaryWithDefault
340
F
  0
DICTIONARY
  5
47
102
{ACAD_REACTORS
330
C
102
}
330
C
100
AcDbDictionary
281
     1
  3
A0
350
48
  3
A1
350
49
  3
A2
350
4A
  3
A3
350
4B
  3
A4
350
4C
  3
A5
350
4D
  3
A6
350
4E
  3
A7
350
4F
  3
A8
350
50
  3
A9
350
51
  3
B0
350
52
  3
B1
350
53
  3
B2
350
54
  3
B3
350
55
  3
B4
350
56
  3
B5
350
57
  3
B6
350
58
  3
B7
350
59
  3
B8
350
5A
  3
B9
350
5B
  3
C0
350
5C
  3
C1
350
5D
  3
C2
350
5E
  3
C3
350
5F
  3
C4
350
60
  3
C5
350
61
  3
C6
350
62
  3
C7
350
63
  3
C8
350
64
  3
C9
350
65
  3
D0
350
66
  3
D1
350
67
  3
D2
350
68
  0
XRECORD
  5
3A2
102
{ACAD_REACTORS
330
C
102
}
330
C
100
AcDbXrecord
280
     1
  1
DWGPROPS COOKIE
  2

  3

  4

  6

  7

  8
radek.stransky
  9

300
=
301
=
302
=
303
=
304
=
305
=
306
=
307
=
308
=
309
=
 40
0.0
 41
2459097.229255856
 42
2459097.229285949
  1

 90
        0
  0
LAYOUT
  5
1E
102
{ACAD_REACTORS
330
1A
102
}
330
1A
100
AcDbPlotSettings
  1

  2
none_device
  4

  6

 40
0.0
 41
0.0
 42
0.0
 43
0.0
 44
0.0
 45
0.0
 46
0.0
 47
0.0
 48
0.0
 49
0.0
140
0.0
141
0.0
142
1.0
143
1.0
 70
   688
 72
     1
 73
     0
 74
     5
  7

 75
    16
147
1.0
148
0.0
149
0.0
100
AcDbLayout
  1
Layout1
 70
     1
 71
     1
 10
0.0
 20
0.0
 11
420.0
 21
297.0
 12
0.0
 22
0.0
 32
0.0
 14
1.0000000000E+20
 24
1.0000000000E+20
 34
1.0000000000E+20
 15
-1.0000000000E+20
 25
-1.0000000000E+20
 35
-1.0000000000E+20
146
0.0
 13
0.0
 23
0.0
 33
0.0
 16
1.0
 26
0.0
 36
0.0
 17
0.0
 27
1.0
 37
0.0
 76
     0
330
1B
  0
LAYOUT
  5
26
102
{ACAD_REACTORS
330
1A
102
}
330
1A
100
AcDbPlotSettings
  1

  2
none_device
  4

  6

 40
0.0
 41
0.0
 42
0.0
 43
0.0
 44
0.0
 45
0.0
 46
0.0
 47
0.0
 48
0.0
 49
0.0
140
0.0
141
0.0
142
1.0
143
1.0
 70
   688
 72
     1
 73
     0
 74
     5
  7

 75
    16
147
1.0
148
0.0
149
0.0
100
AcDbLayout
  1
Layout2
 70
     1
 71
     2
 10
0.0
 20
0.0
 11
0.0
 21
0.0
 12
0.0
 22
0.0
 32
0.0
 14
0.0
 24
0.0
 34
0.0
 15
0.0
 25
0.0
 35
0.0
146
0.0
 13
0.0
 23
0.0
 33
0.0
 16
1.0
 26
0.0
 36
0.0
 17
0.0
 27
1.0
 37
0.0
 76
     0
330
23
  0
LAYOUT
  5
22
102
{ACAD_REACTORS
330
1A
102
}
330
1A
100
AcDbPlotSettings
  1

  2
none_device
  4
ANSI_A_(11.00_x_8.50_Inches)
  6

 40
6.35
 41
19.05
 42
6.35000508
 43
19.05000254
 44
279.4
 45
215.9
 46
-704.6200782746
 47
-505.5853892446
 48
0.0
 49
0.0
140
0.0
141
0.0
142
0.0049111048
143
1.0
 70
  1696
 72
     0
 73
     0
 74
     0
  7

 75
     0
147
0.0179189148
148
-1300.4909072572
149
0.0
100
AcDbLayout
  1
Model
 70
     1
 71
     0
 10
0.0
 20
0.0
 11
420.0
 21
297.0
 12
0.0
 22
0.0
 32
0.0
 14
5649.0187553361
 24
3908.9852838407
 34
0.0
 15
7786.2260459508
 25
5622.4490113816
 35
0.0
146
0.0
 13
0.0
 23
0.0
 33
0.0
 16
1.0
 26
0.0
 36
0.0
 17
0.0
 27
1.0
 37
0.0
 76
     0
330
1F
331
29
  0
MLINESTYLE
  5
18
102
{ACAD_REACTORS
330
17
102
}
330
17
100
AcDbMlineStyle
  2
Standard
 70
     0
  3

 62
   256
 51
90.0
 52
90.0
 71
     2
 49
0.5
 62
   256
  6
BYLAYER
 49
-0.5
 62
   256
  6
BYLAYER
  0
ACDBPLACEHOLDER
  5
F
102
{ACAD_REACTORS
330
E
102
}
330
E
  0
SCALE
  5
48
102
{ACAD_REACTORS
330
47
102
}
330
47
100
AcDbScale
 70
     0
300
1:1
140
1.0
141
1.0
290
     1
  0
SCALE
  5
49
102
{ACAD_REACTORS
330
47
102
}
330
47
100
AcDbScale
 70
     0
300
1:2
140
1.0
141
2.0
290
     0
  0
SCALE
  5
4A
102
{ACAD_REACTORS
330
47
102
}
330
47
100
AcDbScale
 70
     0
300
1:4
140
1.0
141
4.0
290
     0
  0
SCALE
  5
4B
102
{ACAD_REACTORS
330
47
102
}
330
47
100
AcDbScale
 70
     0
300
1:5
140
1.0
141
5.0
290
     0
  0
SCALE
  5
4C
102
{ACAD_REACTORS
330
47
102
}
330
47
100
AcDbScale
 70
     0
300
1:8
140
1.0
141
8.0
290
     0
  0
SCALE
  5
4D
102
{ACAD_REACTORS
330
47
102
}
330
47
100
AcDbScale
 70
     0
300
1:10
140
1.0
141
10.0
290
     0
  0
SCALE
  5
4E
102
{ACAD_REACTORS
330
47
102
}
330
47
100
AcDbScale
 70
     0
300
1:16
140
1.0
141
16.0
290
     0
  0
SCALE
  5
4F
102
{ACAD_REACTORS
330
47
102
}
330
47
100
AcDbScale
 70
     0
300
1:20
140
1.0
141
20.0
290
     0
  0
SCALE
  5
50
102
{ACAD_REACTORS
330
47
102
}
330
47
100
AcDbScale
 70
     0
300
1:30
140
1.0
141
30.0
290
     0
  0
SCALE
  5
51
102
{ACAD_REACTORS
330
47
102
}
330
47
100
AcDbScale
 70
     0
300
1:40
140
1.0
141
40.0
290
     0
  0
SCALE
  5
52
102
{ACAD_REACTORS
330
47
102
}
330
47
100
AcDbScale
 70
     0
300
1:50
140
1.0
141
50.0
290
     0
  0
SCALE
  5
53
102
{ACAD_REACTORS
330
47
102
}
330
47
100
AcDbScale
 70
     0
300
1:100
140
1.0
141
100.0
290
     0
  0
SCALE
  5
54
102
{ACAD_REACTORS
330
47
102
}
330
47
100
AcDbScale
 70
     0
300
2:1
140
2.0
141
1.0
290
     0
  0
SCALE
  5
55
102
{ACAD_REACTORS
330
47
102
}
330
47
100
AcDbScale
 70
     0
300
4:1
140
4.0
141
1.0
290
     0
  0
SCALE
  5
56
102
{ACAD_REACTORS
330
47
102
}
330
47
100
AcDbScale
 70
     0
300
8:1
140
8.0
141
1.0
290
     0
  0
SCALE
  5
57
102
{ACAD_REACTORS
330
47
102
}
330
47
100
AcDbScale
 70
     0
300
10:1
140
10.0
141
1.0
290
     0
  0
SCALE
  5
58
102
{ACAD_REACTORS
330
47
102
}
330
47
100
AcDbScale
 70
     0
300
100:1
140
100.0
141
1.0
290
     0
  0
SCALE
  5
59
102
{ACAD_REACTORS
330
47
102
}
330
47
100
AcDbScale
 70
     0
300
1/128" = 1'-0"
140
0.0078125
141
12.0
290
     0
  0
SCALE
  5
5A
102
{ACAD_REACTORS
330
47
102
}
330
47
100
AcDbScale
 70
     0
300
1/64" = 1'-0"
140
0.015625
141
12.0
290
     0
  0
SCALE
  5
5B
102
{ACAD_REACTORS
330
47
102
}
330
47
100
AcDbScale
 70
     0
300
1/32" = 1'-0"
140
0.03125
141
12.0
290
     0
  0
SCALE
  5
5C
102
{ACAD_REACTORS
330
47
102
}
330
47
100
AcDbScale
 70
     0
300
1/16" = 1'-0"
140
0.0625
141
12.0
290
     0
  0
SCALE
  5
5D
102
{ACAD_REACTORS
330
47
102
}
330
47
100
AcDbScale
 70
     0
300
3/32" = 1'-0"
140
0.09375
141
12.0
290
     0
  0
SCALE
  5
5E
102
{ACAD_REACTORS
330
47
102
}
330
47
100
AcDbScale
 70
     0
300
1/8" = 1'-0"
140
0.125
141
12.0
290
     0
  0
SCALE
  5
5F
102
{ACAD_REACTORS
330
47
102
}
330
47
100
AcDbScale
 70
     0
300
3/16" = 1'-0"
140
0.1875
141
12.0
290
     0
  0
SCALE
  5
60
102
{ACAD_REACTORS
330
47
102
}
330
47
100
AcDbScale
 70
     0
300
1/4" = 1'-0"
140
0.25
141
12.0
290
     0
  0
SCALE
  5
61
102
{ACAD_REACTORS
330
47
102
}
330
47
100
AcDbScale
 70
     0
300
3/8" = 1'-0"
140
0.375
141
12.0
290
     0
  0
SCALE
  5
62
102
{ACAD_REACTORS
330
47
102
}
330
47
100
AcDbScale
 70
     0
300
1/2" = 1'-0"
140
0.5
141
12.0
290
     0
  0
SCALE
  5
63
102
{ACAD_REACTORS
330
47
102
}
330
47
100
AcDbScale
 70
     0
300
3/4" = 1'-0"
140
0.75
141
12.0
290
     0
  0
SCALE
  5
64
102
{ACAD_REACTORS
330
47
102
}
330
47
100
AcDbScale
 70
     0
300
1" = 1'-0"
140
1.0
141
12.0
290
     0
  0
SCALE
  5
65
102
{ACAD_REACTORS
330
47
102
}
330
47
100
AcDbScale
 70
     0
300
1-1/2" = 1'-0"
140
1.5
141
12.0
290
     0
  0
SCALE
  5
66
102
{ACAD_REACTORS
330
47
102
}
330
47
100
AcDbScale
 70
     0
300
3" = 1'-0"
140
3.0
141
12.0
290
     0
  0
SCALE
  5
67
102
{ACAD_REACTORS
330
47
102
}
330
47
100
AcDbScale
 70
     0
300
6" = 1'-0"
140
6.0
141
12.0
290
     0
  0
SCALE
  5
68
102
{ACAD_REACTORS
330
47
102
}
330
47
100
AcDbScale
 70
     0
300
1'-0" = 1'-0"
140
12.0
141
12.0
290
     0
  0
ENDSEC
  0
EOF
