  0
SECTION
  2
HEADER
  9
$ACADVER
  1
AC1015
  9
$ACADMAINTVER
 70
     6
  9
$DWGCODEPAGE
  3
ANSI_1250
  9
$INSBASE
 10
0.0
 20
0.0
 30
0.0
  9
$EXTMIN
 10
0.0
 20
0.0
 30
0.0
  9
$EXTMAX
 10
20000.0
 20
10000.0
 30
0.0
  9
$LIMMIN
 10
0.0
 20
0.0
  9
$LIMMAX
 10
20000.0
 20
10000.0
  9
$ORTHOMODE
 70
     0
  9
$REGENMODE
 70
     1
  9
$FILLMODE
 70
     1
  9
$QTEXTMODE
 70
     0
  9
$MIRRTEXT
 70
     1
  9
$LTSCALE
 40
1.0
  9
$ATTMODE
 70
     1
  9
$TEXTSIZE
 40
2.0
  9
$TRACEWID
 40
1.0
  9
$TEXTSTYLE
  7
Standard
  9
$CLAYER
  8
0
  9
$CELTYPE
  6
ByLayer
  9
$CECOLOR
 62
   256
  9
$CELTSCALE
 40
1.0
  9
$DISPSILH
 70
     0
  9
$DIMSCALE
 40
1.0
  9
$DIMASZ
 40
2.0
  9
$DIMEXO
 40
1.0
  9
$DIMDLI
 40
3.75
  9
$DIMRND
 40
0.0
  9
$DIMDLE
 40
0.0
  9
$DIMEXE
 40
1.0
  9
$DIMTP
 40
0.0
  9
$DIMTM
 40
0.0
  9
$DIMTXT
 40
2.0
  9
$DIMCEN
 40
2.5
  9
$DIMTSZ
 40
0.0
  9
$DIMTOL
 70
     0
  9
$DIMLIM
 70
     0
  9
$DIMTIH
 70
     1
  9
$DIMTOH
 70
     1
  9
$DIMSE1
 70
     0
  9
$DIMSE2
 70
     0
  9
$DIMTAD
 70
     1
  9
$DIMZIN
 70
     0
  9
$DIMBLK
  1

  9
$DIMASO
 70
     1
  9
$DIMSHO
 70
     1
  9
$DIMPOST
  1

  9
$DIMAPOST
  1

  9
$DIMALT
 70
     0
  9
$DIMALTD
 70
     3
  9
$DIMALTF
 40
0.0393700787
  9
$DIMLFAC
 40
1.0
  9
$DIMTOFL
 70
     1
  9
$DIMTVP
 40
0.0
  9
$DIMTIX
 70
     0
  9
$DIMSOXD
 70
     0
  9
$DIMSAH
 70
     0
  9
$DIMBLK1
  1

  9
$DIMBLK2
  1

  9
$DIMSTYLE
  2
ISO-25
  9
$DIMCLRD
 70
     0
  9
$DIMCLRE
 70
     0
  9
$DIMCLRT
 70
     0
  9
$DIMTFAC
 40
1.0
  9
$DIMGAP
 40
1.524
  9
$DIMJUST
 70
     0
  9
$DIMSD1
 70
     0
  9
$DIMSD2
 70
     0
  9
$DIMTOLJ
 70
     0
  9
$DIMTZIN
 70
     0
  9
$DIMALTZ
 70
     0
  9
$DIMALTTZ
 70
     0
  9
$DIMUPT
 70
     0
  9
$DIMDEC
 70
     2
  9
$DIMTDEC
 70
     0
  9
$DIMALTU
 70
     2
  9
$DIMALTTD
 70
     3
  9
$DIMTXSTY
  7
Standard
  9
$DIMAUNIT
 70
     0
  9
$DIMADEC
 70
     2
  9
$DIMALTRND
 40
0.0
  9
$DIMAZIN
 70
     0
  9
$DIMDSEP
 70
    44
  9
$DIMATFIT
 70
     3
  9
$DIMFRAC
 70
     0
  9
$DIMLDRBLK
  1

  9
$DIMLUNIT
 70
     2
  9
$DIMLWD
 70
    -2
  9
$DIMLWE
 70
    -2
  9
$DIMTMOVE
 70
     0
  9
$LUNITS
 70
     2
  9
$LUPREC
 70
     3
  9
$SKETCHINC
 40
1.0
  9
$FILLETRAD
 40
10.0
  9
$AUNITS
 70
     0
  9
$AUPREC
 70
     2
  9
$MENU
  1
.
  9
$ELEVATION
 40
0.0
  9
$PELEVATION
 40
0.0
  9
$THICKNESS
 40
0.0
  9
$LIMCHECK
 70
     0
  9
$CHAMFERA
 40
0.0
  9
$CHAMFERB
 40
0.0
  9
$CHAMFERC
 40
0.0
  9
$CHAMFERD
 40
0.0
  9
$SKPOLY
 70
     0
  9
$TDCREATE
 40
2459100.442990787
  9
$TDUCREATE
 40
2459100.359657454
  9
$TDUPDATE
 40
2459100.442991516
  9
$TDUUPDATE
 40
2459100.359658183
  9
$TDINDWG
 40
0.0000000116
  9
$TDUSRTIMER
 40
0.0000000116
  9
$USRTIMER
 70
     1
  9
$ANGBASE
 50
0.0
  9
$ANGDIR
 70
     0
  9
$PDMODE
 70
     0
  9
$PDSIZE
 40
-1.0
  9
$PLINEWID
 40
0.0
  9
$SPLFRAME
 70
     0
  9
$SPLINETYPE
 70
     6
  9
$SPLINESEGS
 70
     8
  9
$HANDSEED
  5
1F8
  9
$SURFTAB1
 70
     6
  9
$SURFTAB2
 70
     6
  9
$SURFTYPE
 70
     6
  9
$SURFU
 70
     6
  9
$SURFV
 70
     6
  9
$UCSBASE
  2

  9
$UCSNAME
  2

  9
$UCSORG
 10
0.0
 20
0.0
 30
0.0
  9
$UCSXDIR
 10
1.0
 20
0.0
 30
0.0
  9
$UCSYDIR
 10
0.0
 20
1.0
 30
0.0
  9
$UCSORTHOREF
  2

  9
$UCSORTHOVIEW
 70
     0
  9
$UCSORGTOP
 10
0.0
 20
0.0
 30
0.0
  9
$UCSORGBOTTOM
 10
0.0
 20
0.0
 30
0.0
  9
$UCSORGLEFT
 10
0.0
 20
0.0
 30
0.0
  9
$UCSORGRIGHT
 10
0.0
 20
0.0
 30
0.0
  9
$UCSORGFRONT
 10
0.0
 20
0.0
 30
0.0
  9
$UCSORGBACK
 10
0.0
 20
0.0
 30
0.0
  9
$PUCSBASE
  2

  9
$PUCSNAME
  2

  9
$PUCSORG
 10
0.0
 20
0.0
 30
0.0
  9
$PUCSXDIR
 10
1.0
 20
0.0
 30
0.0
  9
$PUCSYDIR
 10
0.0
 20
1.0
 30
0.0
  9
$PUCSORTHOREF
  2

  9
$PUCSORTHOVIEW
 70
     0
  9
$PUCSORGTOP
 10
0.0
 20
0.0
 30
0.0
  9
$PUCSORGBOTTOM
 10
0.0
 20
0.0
 30
0.0
  9
$PUCSORGLEFT
 10
0.0
 20
0.0
 30
0.0
  9
$PUCSORGRIGHT
 10
0.0
 20
0.0
 30
0.0
  9
$PUCSORGFRONT
 10
0.0
 20
0.0
 30
0.0
  9
$PUCSORGBACK
 10
0.0
 20
0.0
 30
0.0
  9
$USERI1
 70
     0
  9
$USERI2
 70
     0
  9
$USERI3
 70
     0
  9
$USERI4
 70
     0
  9
$USERI5
 70
     0
  9
$USERR1
 40
0.0
  9
$USERR2
 40
0.0
  9
$USERR3
 40
0.0
  9
$USERR4
 40
0.0
  9
$USERR5
 40
0.0
  9
$WORLDVIEW
 70
     1
  9
$SHADEDGE
 70
     3
  9
$SHADEDIF
 70
    70
  9
$TILEMODE
 70
     1
  9
$MAXACTVP
 70
    64
  9
$PINSBASE
 10
0.0
 20
0.0
 30
0.0
  9
$PLIMCHECK
 70
     0
  9
$PEXTMIN
 10
1.0000000000E+20
 20
1.0000000000E+20
 30
1.0000000000E+20
  9
$PEXTMAX
 10
-1.0000000000E+20
 20
-1.0000000000E+20
 30
-1.0000000000E+20
  9
$PLIMMIN
 10
0.0
 20
0.0
  9
$PLIMMAX
 10
420.0
 20
297.0
  9
$UNITMODE
 70
     0
  9
$VISRETAIN
 70
     1
  9
$PLINEGEN
 70
     0
  9
$PSLTSCALE
 70
     1
  9
$TREEDEPTH
 70
  3020
  9
$CMLSTYLE
  2
Standard
  9
$CMLJUST
 70
     0
  9
$CMLSCALE
 40
20.0
  9
$PROXYGRAPHICS
 70
     1
  9
$MEASUREMENT
 70
     1
  9
$CELWEIGHT
370
    -1
  9
$ENDCAPS
280
     0
  9
$JOINSTYLE
280
     0
  9
$LWDISPLAY
290
     1
  9
$INSUNITS
 70
     4
  9
$HYPERLINKBASE
  1

  9
$STYLESHEET
  1

  9
$XEDIT
290
     1
  9
$CEPSNTYPE
380
     0
  9
$PSTYLEMODE
290
     1
  9
$FINGERPRINTGUID
  2
{a24bf10b-69d1-40ec-ba19-62b75d49d999}
  9
$VERSIONGUID
  2
{FAEB1C32-E019-11D5-929B-00C0DF256EC4}
  9
$EXTNAMES
290
     1
  9
$PSVPSCALE
 40
0.0
  9
$OLESTARTUP
290
     0
  0
ENDSEC
  0
SECTION
  2
CLASSES
  0
CLASS
  1
ACDBDICTIONARYWDFLT
  2
AcDbDictionaryWithDefault
  3
ObjectDBX Classes
 90
        0
280
     0
281
     0
  0
CLASS
  1
VISUALSTYLE
  2
AcDbVisualStyle
  3
ObjectDBX Classes
 90
     4095
280
     0
281
     0
  0
CLASS
  1
MATERIAL
  2
AcDbMaterial
  3
ObjectDBX Classes
 90
     1153
280
     0
281
     0
  0
CLASS
  1
SCALE
  2
AcDbScale
  3
ObjectDBX Classes
 90
     1153
280
     0
281
     0
  0
CLASS
  1
TABLESTYLE
  2
AcDbTableStyle
  3
ObjectDBX Classes
 90
     4095
280
     0
281
     0
  0
CLASS
  1
MLEADERSTYLE
  2
AcDbMLeaderStyle
  3
ACDB_MLEADERSTYLE_CLASS
 90
     4095
280
     0
281
     0
  0
CLASS
  1
SUN
  2
AcDbSun
  3
SCENEOE
 90
     1153
280
     0
281
     0
  0
CLASS
  1
ACDBPLACEHOLDER
  2
AcDbPlaceHolder
  3
ObjectDBX Classes
 90
        0
280
     0
281
     0
  0
CLASS
  1
LAYOUT
  2
AcDbLayout
  3
ObjectDBX Classes
 90
        0
280
     0
281
     0
  0
ENDSEC
  0
SECTION
  2
TABLES
  0
TABLE
  2
VPORT
  5
8
330
0
100
AcDbSymbolTable
 70
     1
  0
VPORT
  5
29
330
8
100
AcDbSymbolTableRecord
100
AcDbViewportTableRecord
  2
*Active
 70
     0
 10
0.0
 20
0.0
 11
1.0
 21
1.0
 12
10000.0
 22
5000.0
 13
0.0
 23
0.0
 14
10.0
 24
10.0
 15
10.0
 25
10.0
 16
0.0
 26
0.0
 36
1.0
 17
0.0
 27
0.0
 37
0.0
 40
10000.0
 41
2.0
 42
50.0
 43
0.0
 44
0.0
 50
0.0
 51
0.0
 71
     0
 72
  2000
 73
     1
 74
     3
 75
     0
 76
     0
 77
     0
 78
     0
281
     0
 65
     1
110
0.0
120
0.0
130
0.0
111
1.0
121
0.0
131
0.0
112
0.0
122
1.0
132
0.0
 79
     0
146
0.0
  0
ENDTAB
  0
TABLE
  2
LTYPE
  5
5
330
0
100
AcDbSymbolTable
 70
     6
  0
LTYPE
  5
14
330
5
100
AcDbSymbolTableRecord
100
AcDbLinetypeTableRecord
  2
ByBlock
 70
     0
  3

 72
    65
 73
     0
 40
0.0
  0
LTYPE
  5
15
330
5
100
AcDbSymbolTableRecord
100
AcDbLinetypeTableRecord
  2
ByLayer
 70
     0
  3

 72
    65
 73
     0
 40
0.0
  0
LTYPE
  5
16
330
5
100
AcDbSymbolTableRecord
100
AcDbLinetypeTableRecord
  2
Continuous
 70
     0
  3
Solid line
 72
    65
 73
     0
 40
0.0
  0
LTYPE
  5
6E
330
5
100
AcDbSymbolTableRecord
100
AcDbLinetypeTableRecord
  2
HIDDEN
 70
     0
  3
Hidden __ __ __ __ __ __ __ __ __ __ __ __ __ __
 72
    65
 73
     2
 40
1.905
 49
1.27
 74
     0
 49
-0.635
 74
     0
  0
LTYPE
  5
6F
330
5
100
AcDbSymbolTableRecord
100
AcDbLinetypeTableRecord
  2
PHANTOM
 70
     0
  3
Phantom ______  __  __  ______  __  __  ______
 72
    65
 73
     6
 40
12.7
 49
6.35
 74
     0
 49
-1.27
 74
     0
 49
1.27
 74
     0
 49
-1.27
 74
     0
 49
1.27
 74
     0
 49
-1.27
 74
     0
  0
LTYPE
  5
70
330
5
100
AcDbSymbolTableRecord
100
AcDbLinetypeTableRecord
  2
CENTER
 70
     0
  3
Center ____ _ ____ _ ____ _ ____ _ ____ _ ____
 72
    65
 73
     4
 40
10.16
 49
6.35
 74
     0
 49
-1.27
 74
     0
 49
1.27
 74
     0
 49
-1.27
 74
     0
  0
LTYPE
  5
71
330
5
100
AcDbSymbolTableRecord
100
AcDbLinetypeTableRecord
  2
CENTERX2
 70
     0
  3
Center (2x) ________  __  ________  __  _____
 72
    65
 73
     4
 40
20.32
 49
12.7
 74
     0
 49
-2.54
 74
     0
 49
2.54
 74
     0
 49
-2.54
 74
     0
  0
LTYPE
  5
72
330
5
100
AcDbSymbolTableRecord
100
AcDbLinetypeTableRecord
  2
DOT2
 70
     0
  3
Dot (.5x) ........................................
 72
    65
 73
     2
 40
0.635
 49
0.0
 74
     0
 49
-0.635
 74
     0
  0
ENDTAB
  0
TABLE
  2
LAYER
  5
2
330
0
100
AcDbSymbolTable
 70
    13
  0
LAYER
  5
10
330
2
100
AcDbSymbolTableRecord
100
AcDbLayerTableRecord
  2
0
 70
     0
 62
     7
  6
Continuous
370
    -3
390
F
  0
LAYER
  5
73
330
2
100
AcDbSymbolTableRecord
100
AcDbLayerTableRecord
  2
FORMAT
 70
     0
 62
     7
  6
Continuous
370
    -3
390
F
  0
LAYER
  5
74
330
2
100
AcDbSymbolTableRecord
100
AcDbLayerTableRecord
  2
OSA
 70
     0
 62
     7
  6
CENTER
370
    -3
390
F
  0
LAYER
  5
75
330
2
100
AcDbSymbolTableRecord
100
AcDbLayerTableRecord
  2
0_35
 70
     0
 62
     7
  6
Continuous
370
    35
390
F
  0
LAYER
  5
76
330
2
100
AcDbSymbolTableRecord
100
AcDbLayerTableRecord
  2
0_5
 70
     0
 62
     7
  6
Continuous
370
    50
390
F
  0
LAYER
  5
77
330
2
100
AcDbSymbolTableRecord
100
AcDbLayerTableRecord
  2
0_25
 70
     0
 62
     7
  6
Continuous
370
    25
390
F
  0
LAYER
  5
78
330
2
100
AcDbSymbolTableRecord
100
AcDbLayerTableRecord
  2
0_18
 70
     0
 62
     7
  6
Continuous
370
    -3
390
F
  0
LAYER
  5
79
330
2
100
AcDbSymbolTableRecord
100
AcDbLayerTableRecord
  2
SLD-0
 70
     0
 62
   179
  6
Continuous
370
    -3
390
F
  0
LAYER
  5
7A
330
2
100
AcDbSymbolTableRecord
100
AcDbLayerTableRecord
  2
KOTY
 70
     0
 62
     7
  6
Continuous
370
    -3
390
F
  0
LAYER
  5
7B
330
2
100
AcDbSymbolTableRecord
100
AcDbLayerTableRecord
  2
SILNA
 70
     0
 62
   179
  6
Continuous
370
    -3
390
F
  0
LAYER
  5
7C
330
2
100
AcDbSymbolTableRecord
100
AcDbLayerTableRecord
  2
0_18_1
 70
     0
 62
   179
  6
Continuous
370
    -3
390
F
  0
LAYER
  5
7D
330
2
100
AcDbSymbolTableRecord
100
AcDbLayerTableRecord
  2
0_35_1
 70
     0
 62
   179
  6
Continuous
370
    35
390
F
  0
LAYER
  5
7E
330
2
100
AcDbSymbolTableRecord
100
AcDbLayerTableRecord
  2
0_5_1
 70
     0
 62
   179
  6
Continuous
370
    50
390
F
  0
ENDTAB
  0
TABLE
  2
STYLE
  5
3
330
0
100
AcDbSymbolTable
 70
     1
  0
STYLE
  5
11
330
3
100
AcDbSymbolTableRecord
100
AcDbTextStyleTableRecord
  2
Standard
 70
     0
 40
0.0
 41
1.0
 50
0.0
 71
     0
 42
2.0
  3
txt
  4

  0
ENDTAB
  0
TABLE
  2
VIEW
  5
6
330
0
100
AcDbSymbolTable
 70
     0
  0
ENDTAB
  0
TABLE
  2
UCS
  5
7
330
0
100
AcDbSymbolTable
 70
     0
  0
ENDTAB
  0
TABLE
  2
APPID
  5
9
330
0
100
AcDbSymbolTable
 70
     1
  0
APPID
  5
12
330
9
100
AcDbSymbolTableRecord
100
AcDbRegAppTableRecord
  2
ACAD
 70
     0
  0
ENDTAB
  0
TABLE
  2
DIMSTYLE
  5
A
330
0
100
AcDbSymbolTable
 70
     1
100
AcDbDimStyleTable
  0
DIMSTYLE
105
27
330
A
100
AcDbSymbolTableRecord
100
AcDbDimStyleTableRecord
  2
ISO-25
 70
     0
 41
2.5
 42
0.625
 43
3.75
 44
1.25
 73
     0
 74
     0
 77
     1
 78
     8
140
2.5
141
2.5
143
0.0393700787
147
0.625
171
     3
172
     1
178
     0
271
     2
272
     2
274
     3
278
    44
283
     0
284
     8
340
11
  0
ENDTAB
  0
TABLE
  2
BLOCK_RECORD
  5
1
330
0
100
AcDbSymbolTable
 70
     1
  0
BLOCK_RECORD
  5
1F
330
1
100
AcDbSymbolTableRecord
100
AcDbBlockTableRecord
  2
*Model_Space
340
22
  0
BLOCK_RECORD
  5
1B
330
1
100
AcDbSymbolTableRecord
100
AcDbBlockTableRecord
  2
*Paper_Space
340
1E
  0
BLOCK_RECORD
  5
23
330
1
100
AcDbSymbolTableRecord
100
AcDbBlockTableRecord
  2
*Paper_Space0
340
26
  0
ENDTAB
  0
ENDSEC
  0
SECTION
  2
BLOCKS
  0
BLOCK
  5
20
330
1F
100
AcDbEntity
  8
0
100
AcDbBlockBegin
  2
*Model_Space
 70
     0
 10
0.0
 20
0.0
 30
0.0
  3
*Model_Space
  1

  0
ENDBLK
  5
21
330
1F
100
AcDbEntity
  8
0
100
AcDbBlockEnd
  0
BLOCK
  5
1C
330
1B
100
AcDbEntity
 67
     1
  8
0
100
AcDbBlockBegin
  2
*Paper_Space
 70
     0
 10
0.0
 20
0.0
 30
0.0
  3
*Paper_Space
  1

  0
ENDBLK
  5
1D
330
1B
100
AcDbEntity
 67
     1
  8
0
100
AcDbBlockEnd
  0
BLOCK
  5
24
330
23
100
AcDbEntity
  8
0
100
AcDbBlockBegin
  2
*Paper_Space0
 70
     0
 10
0.0
 20
0.0
 30
0.0
  3
*Paper_Space0
  1

  0
ENDBLK
  5
25
330
23
100
AcDbEntity
  8
0
100
AcDbBlockEnd
  0
ENDSEC
  0
SECTION
  2
ENTITIES
  0
ARC
  5
7F
330
1F
100
AcDbEntity
  8
0
  6
Continuous
 62
     7
370
    25
100
AcDbCircle
 10
8518.8690878349
 20
6835.2677012193
 30
0.0
 40
4.875000000001743
100
AcDbArc
 50
220.8495624744
 51
255.9109006619
  0
ARC
  5
80
330
1F
100
AcDbEntity
  8
0
  6
Continuous
 62
     7
370
    25
100
AcDbCircle
 10
8518.8690878349
 20
6835.2677012193
 30
0.0
 40
4.875000000001006
100
AcDbArc
 50
121.150630558
 51
156.1712981808
  0
LINE
  5
81
330
1F
100
AcDbEntity
  8
0
  6
Continuous
 62
     7
370
    25
100
AcDbLine
 10
8517.6823642114
 20
6830.5393492822
 30
0.0
 11
8518.1768323878
 21
6830.6135195086
 31
0.0
  0
LINE
  5
82
330
1F
100
AcDbEntity
  8
0
  6
Continuous
 62
     7
370
    25
100
AcDbLine
 10
8516.8417683115
 20
6839.5139466844
 30
0.0
 11
8516.347300135
 21
6839.439776458
 31
0.0
  0
LINE
  5
83
330
1F
100
AcDbEntity
  8
0
  6
Continuous
 62
     7
370
    25
100
AcDbLine
 10
8514.1954229263
 20
6836.0501329921
 30
0.0
 11
8514.5594730933
 21
6836.1047405172
 31
0.0
  0
LINE
  5
84
330
1F
100
AcDbEntity
  8
0
  6
Continuous
 62
     7
370
    25
100
AcDbLine
 10
8514.9971580463
 20
6833.2034302419
 30
0.0
 11
8514.629125582
 21
6833.1482253723
 31
0.0
  0
ARC
  5
85
330
1F
100
AcDbEntity
  8
0
  6
Continuous
 62
     7
370
    25
100
AcDbCircle
 10
8518.8690878349
 20
6835.2677012193
 30
0.0
 40
4.875000000000751
100
AcDbArc
 50
179.6808825115
 51
197.3806487084
  0
LINE
  5
86
330
1F
100
AcDbEntity
  8
0
  6
Continuous
 62
     7
370
    25
100
AcDbLine
 10
8514.5666035032
 20
6835.3807191352
 30
0.0
 11
8513.9941634484
 21
6835.2948531269
 31
0.0
  0
LINE
  5
87
330
1F
100
AcDbEntity
  8
0
  6
Continuous
 62
     7
370
    25
100
AcDbLine
 10
8514.2166741278
 20
6833.8114485976
 30
0.0
 11
8514.786212687
 21
6833.8968793815
 31
0.0
  0
ARC
  5
88
330
1F
100
AcDbEntity
  8
0
  6
Continuous
 62
     7
370
    25
100
AcDbCircle
 10
8546.3120716269
 20
6652.3144759387
 30
0.0
 40
4.874999999999535
100
AcDbArc
 50
220.8495624744
 51
255.9109006619
  0
ARC
  5
89
330
1F
100
AcDbEntity
  8
0
  6
Continuous
 62
     7
370
    25
100
AcDbCircle
 10
8546.3120716269
 20
6652.3144759387
 30
0.0
 40
4.87499999999971
100
AcDbArc
 50
121.150630558
 51
156.1712981807
  0
LINE
  5
8A
330
1F
100
AcDbEntity
  8
0
  6
Continuous
 62
     7
370
    25
100
AcDbLine
 10
8545.1253480035
 20
6647.5861240015
 30
0.0
 11
8545.6198161799
 21
6647.660294228
 31
0.0
  0
LINE
  5
8B
330
1F
100
AcDbEntity
  8
0
  6
Continuous
 62
     7
370
    25
100
AcDbLine
 10
8544.2847521036
 20
6656.5607214038
 30
0.0
 11
8543.7902839271
 21
6656.4865511773
 31
0.0
  0
LINE
  5
8C
330
1F
100
AcDbEntity
  8
0
  6
Continuous
 62
     7
370
    25
100
AcDbLine
 10
8541.6384067184
 20
6653.0969077115
 30
0.0
 11
8542.0024568854
 21
6653.1515152365
 31
0.0
  0
LINE
  5
8D
330
1F
100
AcDbEntity
  8
0
  6
Continuous
 62
     7
370
    25
100
AcDbLine
 10
8542.4401418384
 20
6650.2502049613
 30
0.0
 11
8542.0721093741
 21
6650.1950000916
 31
0.0
  0
ARC
  5
8E
330
1F
100
AcDbEntity
  8
0
  6
Continuous
 62
     7
370
    25
100
AcDbCircle
 10
8546.3120716269
 20
6652.3144759387
 30
0.0
 40
4.875000000000289
100
AcDbArc
 50
179.6808825115
 51
197.3806487084
  0
LINE
  5
8F
330
1F
100
AcDbEntity
  8
0
  6
Continuous
 62
     7
370
    25
100
AcDbLine
 10
8542.0095872953
 20
6652.4274938545
 30
0.0
 11
8541.4371472405
 21
6652.3416278463
 31
0.0
  0
LINE
  5
90
330
1F
100
AcDbEntity
  8
0
  6
Continuous
 62
     7
370
    25
100
AcDbLine
 10
8541.6596579199
 20
6650.858223317
 30
0.0
 11
8542.2291964791
 21
6650.9436541009
 31
0.0
  0
SPLINE
  5
91
330
1F
100
AcDbEntity
  8
0
  6
Continuous
 62
     7
370
    25
100
AcDbSpline
210
0.0
220
0.0
230
1.0
 70
     8
 71
     3
 72
    15
 73
    11
 74
     0
 42
0.00000001
 43
0.00000001
 40
0.0
 40
0.0
 40
0.0
 40
0.0
 40
0.1249999999999986
 40
0.2500000000000002
 40
0.3750000000000018
 40
0.5000000000000024
 40
0.6249999999999982
 40
0.7500000000000022
 40
0.8750000000000121
 40
1.0
 40
1.0
 40
1.0
 40
1.0
 10
8514.02709091009
 20
6896.984710053905
 30
0.0
 10
8513.66882603662
 20
6896.962392237661
 30
0.0
 10
8512.952296289683
 20
6896.917756605175
 30
0.0
 10
8511.92699593199
 20
6896.562066649552
 30
0.0
 10
8510.998280152138
 20
6896.012190399226
 30
0.0
 10
8510.209296242443
 20
6895.272546796909
 30
0.0
 10
8509.594874026463
 20
6894.382572859808
 30
0.0
 10
8509.188847532365
 20
6893.382563171602
 30
0.0
 10
8508.989186324348
 20
6892.31584316615
 30
0.0
 10
8509.051334871949
 20
6891.600619581553
 30
0.0
 10
8509.082409145747
 20
6891.243007789254
 30
0.0
  0
SPLINE
  5
92
330
1F
100
AcDbEntity
  8
0
  6
Continuous
 62
     7
370
    25
100
AcDbSpline
210
0.0
220
0.0
230
1.0
 70
     8
 71
     3
 72
    15
 73
    11
 74
     0
 42
0.00000001
 43
0.00000001
 40
0.0
 40
0.0
 40
0.0
 40
0.0
 40
0.1249999999999941
 40
0.2499999999999943
 40
0.3749999999999921
 40
0.4999999999999938
 40
0.624999999999992
 40
0.7499999999999939
 40
0.874999999999998
 40
1.0
 40
1.0
 40
1.0
 40
1.0
 10
8867.359898466353
 20
6891.243007789254
 30
0.0
 10
8867.390972740151
 20
6891.600619581553
 30
0.0
 10
8867.453121287752
 20
6892.31584316615
 30
0.0
 10
8867.253460079735
 20
6893.382563171603
 30
0.0
 10
8866.847433585635
 20
6894.382572859808
 30
0.0
 10
8866.233011369657
 20
6895.272546796909
 30
0.0
 10
8865.444027459962
 20
6896.012190399226
 30
0.0
 10
8864.51531168011
 20
6896.562066649552
 30
0.0
 10
8863.490011322418
 20
6896.917756605175
 30
0.0
 10
8862.77348157548
 20
6896.962392237661
 30
0.0
 10
8862.415216702011
 20
6896.984710053905
 30
0.0
  0
LINE
  5
93
330
1F
100
AcDbEntity
  8
0
  6
Continuous
 62
     7
370
    25
100
AcDbLine
 10
8517.0148321732
 20
6834.9895628701
 30
0.0
 11
8516.347300135
 21
6839.439776458
 31
0.0
  0
LINE
  5
94
330
1F
100
AcDbEntity
  8
0
  6
Continuous
 62
     7
370
    25
100
AcDbLine
 10
8517.6823642114
 20
6830.5393492822
 30
0.0
 11
8517.0148321732
 21
6834.9895628701
 31
0.0
  0
SPLINE
  5
95
330
1F
100
AcDbEntity
  8
0
  6
Continuous
 62
     7
370
    25
100
AcDbSpline
210
0.0
220
0.0
230
1.0
 70
     8
 71
     3
 72
    11
 73
     7
 74
     0
 42
0.00000001
 43
0.00000001
 40
0.0
 40
0.0
 40
0.0
 40
0.0
 40
0.2706539149680387
 40
0.5421856801414153
 40
0.7952065811854377
 40
0.9999999999999999
 40
0.9999999999999999
 40
0.9999999999999999
 40
0.9999999999999999
 10
8514.87705583688
 20
6832.534920815614
 30
0.0
 10
8514.91975071586
 20
6832.470065626588
 30
0.0
 10
8515.005278952172
 20
6832.340144894506
 30
0.0
 10
8515.108489427426
 20
6832.187076803257
 30
0.0
 10
8515.174391286571
 20
6832.090524514917
 30
0.0
 10
8515.180583862748
 20
6832.081518027943
 30
0.0
 10
8515.18335397891
 20
6832.077489169126
 30
0.0
  0
ARC
  5
96
330
1F
100
AcDbEntity
  8
0
  6
Continuous
 62
     7
370
    25
100
AcDbCircle
 10
8518.7729969439
 20
6835.0849951536
 30
0.0
 40
4.656311441307646
100
AcDbArc
 50
210.0808682324
 51
213.2066093897
  0
SPLINE
  5
97
330
1F
100
AcDbEntity
  8
0
  6
Continuous
 62
     7
370
    25
100
AcDbSpline
210
0.0
220
0.0
230
1.0
 70
     8
 71
     3
 72
    13
 73
     9
 74
     0
 42
0.00000001
 43
0.00000001
 40
0.0
 40
0.0
 40
0.0
 40
0.0
 40
0.1912350196657718
 40
0.3830645276018707
 40
0.561757567695829
 40
0.7320257694395584
 40
0.9058232181829383
 40
1.0
 40
1.0
 40
1.0
 40
1.0
 10
8514.687324096845
 20
6833.127676002563
 30
0.0
 10
8514.666496280532
 20
6833.138038892046
 30
0.0
 10
8514.624775900913
 20
6833.158796885908
 30
0.0
 10
8514.59893171467
 20
6833.12820429041
 30
0.0
 10
8514.605727123186
 20
6833.054542852539
 30
0.0
 10
8514.642332170208
 20
6832.948355664306
 30
0.0
 10
8514.692429172801
 20
6832.842228018626
 30
0.0
 10
8514.73044329135
 20
6832.774834866519
 30
0.0
 10
8514.743802961573
 20
6832.751150237707
 30
0.0
  0
ARC
  5
98
330
1F
100
AcDbEntity
  8
0
  6
Continuous
 62
     7
370
    25
100
AcDbCircle
 10
8515.6102569093
 20
6834.5931798497
 30
0.0
 40
1.731908341130771
100
AcDbArc
 50
237.7984383076
 51
242.0211461013
  0
SPLINE
  5
99
330
1F
100
AcDbEntity
  8
0
  6
Continuous
 62
     7
370
    25
100
AcDbSpline
210
0.0
220
0.0
230
1.0
 70
     8
 71
     3
 72
    16
 73
    12
 74
     0
 42
0.00000001
 43
0.00000001
 40
0.0
 40
0.0
 40
0.0
 40
0.0
 40
0.1347595790864299
 40
0.2700207988599215
 40
0.3960629591195705
 40
0.5091515875631567
 40
0.6145758051161256
 40
0.7202830918048987
 40
0.8328572074327918
 40
0.9561493240418483
 40
1.0
 40
1.0
 40
1.0
 40
1.0
 10
8514.64331939414
 20
6834.093163767223
 30
0.0
 10
8514.683351050684
 20
6834.04561168575
 30
0.0
 10
8514.76356338106
 20
6833.950330510835
 30
0.0
 10
8514.874885480422
 20
6833.748380050994
 30
0.0
 10
8514.956672388495
 20
6833.538614189331
 30
0.0
 10
8514.998888392538
 20
6833.350571060332
 30
0.0
 10
8515.003842158818
 20
6833.202077867074
 30
0.0
 10
8514.976487257865
 20
6833.096156418457
 30
0.0
 10
8514.91870209433
 20
6833.038529683258
 30
0.0
 10
8514.853287935677
 20
6833.037404962693
 30
0.0
 10
8514.809284204008
 20
6833.058231604821
 30
0.0
 10
8514.797739623778
 20
6833.063695569622
 30
0.0
  0
ARC
  5
9A
330
1F
100
AcDbEntity
  8
0
  6
Continuous
 62
     7
370
    25
100
AcDbCircle
 10
8516.5756710689
 20
6835.9226591019
 30
0.0
 40
2.661021641130785
100
AcDbArc
 50
219.4837737115
 51
223.4338102375
  0
SPLINE
  5
9B
330
1F
100
AcDbEntity
  8
0
  6
Continuous
 62
     7
370
    25
100
AcDbSpline
210
0.0
220
0.0
230
1.0
 70
     8
 71
     3
 72
    13
 73
     9
 74
     0
 42
0.00000001
 43
0.00000001
 40
0.0
 40
0.0
 40
0.0
 40
0.0
 40
0.1912350196657392
 40
0.3830645276018481
 40
0.5617575676958055
 40
0.7320257694395264
 40
0.9058232181829019
 40
1.0
 40
1.0
 40
1.0
 40
1.0
 10
8514.40892435348
 20
6834.983674291662
 30
0.0
 10
8514.395760778545
 20
6834.942942238626
 30
0.0
 10
8514.369392707347
 20
6834.861351509679
 30
0.0
 10
8514.362936204445
 20
6834.701507691914
 30
0.0
 10
8514.382842854102
 20
6834.540437979766
 30
0.0
 10
8514.425332869636
 20
6834.395017668123
 30
0.0
 10
8514.474842408597
 20
6834.292806446644
 30
0.0
 10
8514.509649492124
 20
6834.246793528028
 30
0.0
 10
8514.521882082936
 20
6834.23062276195
 30
0.0
  0
ARC
  5
9C
330
1F
100
AcDbEntity
  8
0
  6
Continuous
 62
     7
370
    25
100
AcDbCircle
 10
8516.8687675171
 20
6833.9686827747
 30
0.0
 40
2.661021640082557
100
AcDbArc
 50
153.6277209814
 51
157.5777575089
  0
SPLINE
  5
9D
330
1F
100
AcDbEntity
  8
0
  6
Continuous
 62
     7
370
    25
100
AcDbSpline
210
0.0
220
0.0
230
1.0
 70
     8
 71
     3
 72
    16
 73
    12
 74
     0
 42
0.00000001
 43
0.00000001
 40
0.0
 40
0.0
 40
0.0
 40
0.0
 40
0.1348147858417671
 40
0.2700723340770214
 40
0.3961092720444553
 40
0.5091935624065075
 40
0.6146164132486823
 40
0.7203253099189854
 40
0.8329031370167995
 40
0.956199801808994
 40
0.9999999999999999
 40
0.9999999999999999
 40
0.9999999999999999
 40
0.9999999999999999
 10
8514.330266738296
 20
6836.18018147284
 30
0.0
 10
8514.359877887011
 20
6836.202189500521
 30
0.0
 10
8514.419197434181
 20
6836.24627783525
 30
0.0
 10
8514.505564410294
 20
6836.210699104199
 30
0.0
 10
8514.572054743381
 20
6836.102814889668
 30
0.0
 10
8514.61004063741
 20
6835.942882123712
 30
0.0
 10
8514.620206805144
 20
6835.759566455675
 30
0.0
 10
8514.605980977809
 20
6835.566054610103
 30
0.0
 10
8514.568641744636
 20
6835.372064477193
 30
0.0
 10
8514.523777286813
 20
6835.233986254949
 30
0.0
 10
8514.492805448606
 20
6835.16800784063
 30
0.0
 10
8514.484686967939
 20
6835.150713275239
 30
0.0
  0
ARC
  5
9E
330
1F
100
AcDbEntity
  8
0
  6
Continuous
 62
     7
370
    25
100
AcDbCircle
 10
8515.5557737627
 20
6834.9564008373
 30
0.0
 40
1.731908343639152
100
AcDbArc
 50
135.0403851212
 51
139.2630929089
  0
SPLINE
  5
9F
330
1F
100
AcDbEntity
  8
0
  6
Continuous
 62
     7
370
    25
100
AcDbSpline
210
0.0
220
0.0
230
1.0
 70
     8
 71
     3
 72
    13
 73
     9
 74
     0
 42
0.00000001
 43
0.00000001
 40
0.0
 40
0.0
 40
0.0
 40
0.0
 40
0.1912350196657522
 40
0.3830645276018539
 40
0.5617575676958326
 40
0.7320257694395261
 40
0.9058232181829202
 40
1.0
 40
1.0
 40
1.0
 40
1.0
 10
8514.187003474843
 20
6836.463146815905
 30
0.0
 10
8514.175818442001
 20
6836.409224482252
 30
0.0
 10
8514.15341360564
 20
6836.301212187725
 30
0.0
 10
8514.143037889893
 20
6836.167496455597
 30
0.0
 10
8514.151988928426
 20
6836.079464150928
 30
0.0
 10
8514.178095871303
 20
6836.043264323673
 30
0.0
 10
8514.210934183458
 20
6836.052194614243
 30
0.0
 10
8514.235018244506
 20
6836.077668512144
 30
0.0
 10
8514.24348233957
 20
6836.086621051049
 30
0.0
  0
ARC
  5
A0
330
1F
100
AcDbEntity
  8
0
  6
Continuous
 62
     7
370
    25
100
AcDbCircle
 10
8518.7236201915
 20
6835.4141735047
 30
0.0
 40
4.656311441680225
100
AcDbArc
 50
163.8549218301
 51
166.9806629871
  0
SPLINE
  5
A1
330
1F
100
AcDbEntity
  8
0
  6
Continuous
 62
     7
370
    25
100
AcDbSpline
210
0.0
220
0.0
230
1.0
 70
     8
 71
     3
 72
    13
 73
     9
 74
     0
 42
0.00000001
 43
0.00000001
 40
0.0
 40
0.0
 40
0.0
 40
0.0
 40
0.0208314972629541
 40
0.23115358047874
 40
0.4420468881753385
 40
0.6666443466771038
 40
0.9126264229647737
 40
0.9999999999999999
 40
0.9999999999999999
 40
0.9999999999999999
 40
0.9999999999999999
 10
8514.409608721802
 20
6837.236283747876
 30
0.0
 10
8514.409911597766
 20
6837.237253402498
 30
0.0
 10
8514.41327241541
 20
6837.248013029368
 30
0.0
 10
8514.40091520825
 20
6837.208548656622
 30
0.0
 10
8514.373444727504
 20
6837.120006531102
 30
0.0
 10
8514.328430848054
 20
6836.972289030557
 30
0.0
 10
8514.28497113803
 20
6836.826103152142
 30
0.0
 10
8514.25801564552
 20
6836.733284334246
 30
0.0
 10
8514.250950525195
 20
6836.708956226847
 30
0.0
  0
LINE
  5
A2
330
1F
100
AcDbEntity
  8
0
  6
Continuous
 62
     7
370
    25
100
AcDbLine
 10
8513.9941634484
 20
6835.2948531269
 30
0.0
 11
8514.2166741278
 21
6833.8114485976
 31
0.0
  0
LINE
  5
A3
330
1F
100
AcDbEntity
  8
0
  6
Continuous
 62
     7
370
    25
100
AcDbLine
 10
8544.4578159653
 20
6652.0363375894
 30
0.0
 11
8543.7902839271
 21
6656.4865511773
 31
0.0
  0
LINE
  5
A4
330
1F
100
AcDbEntity
  8
0
  6
Continuous
 62
     7
370
    25
100
AcDbLine
 10
8545.1253480035
 20
6647.5861240015
 30
0.0
 11
8544.4578159653
 21
6652.0363375894
 31
0.0
  0
SPLINE
  5
A5
330
1F
100
AcDbEntity
  8
0
  6
Continuous
 62
     7
370
    25
100
AcDbSpline
210
0.0
220
0.0
230
1.0
 70
     8
 71
     3
 72
    11
 73
     7
 74
     0
 42
0.00000001
 43
0.00000001
 40
0.0
 40
0.0
 40
0.0
 40
0.0
 40
0.2706539149680121
 40
0.5421856801414275
 40
0.7952065811854354
 40
1.0
 40
1.0
 40
1.0
 40
1.0
 10
8542.320039628976
 20
6649.581695534979
 30
0.0
 10
8542.362734507955
 20
6649.516840345952
 30
0.0
 10
8542.448262744267
 20
6649.386919613871
 30
0.0
 10
8542.551473219522
 20
6649.233851522622
 30
0.0
 10
8542.617375078667
 20
6649.137299234281
 30
0.0
 10
8542.623567654842
 20
6649.128292747308
 30
0.0
 10
8542.626337771004
 20
6649.124263888491
 30
0.0
  0
ARC
  5
A6
330
1F
100
AcDbEntity
  8
0
  6
Continuous
 62
     7
370
    25
100
AcDbCircle
 10
8546.2159807316
 20
6652.1317698703
 30
0.0
 40
4.656311436233073
100
AcDbArc
 50
210.0808682307
 51
213.2066093914
  0
SPLINE
  5
A7
330
1F
100
AcDbEntity
  8
0
  6
Continuous
 62
     7
370
    25
100
AcDbSpline
210
0.0
220
0.0
230
1.0
 70
     8
 71
     3
 72
    13
 73
     9
 74
     0
 42
0.00000001
 43
0.00000001
 40
0.0
 40
0.0
 40
0.0
 40
0.0
 40
0.1912350196657673
 40
0.3830645276018615
 40
0.5617575676958299
 40
0.7320257694395129
 40
0.9058232181829139
 40
1.0
 40
1.0
 40
1.0
 40
1.0
 10
8542.13030788894
 20
6650.174450721928
 30
0.0
 10
8542.109480072628
 20
6650.184813611411
 30
0.0
 10
8542.067759693009
 20
6650.205571605274
 30
0.0
 10
8542.041915506767
 20
6650.174979009776
 30
0.0
 10
8542.048710915282
 20
6650.101317571904
 30
0.0
 10
8542.085315962304
 20
6649.995130383671
 30
0.0
 10
8542.135412964895
 20
6649.889002737991
 30
0.0
 10
8542.173427083446
 20
6649.821609585884
 30
0.0
 10
8542.186786753668
 20
6649.797924957073
 30
0.0
  0
ARC
  5
A8
330
1F
100
AcDbEntity
  8
0
  6
Continuous
 62
     7
370
    25
100
AcDbCircle
 10
8543.0532407012
 20
6651.6399545688
 30
0.0
 40
1.731908340846174
100
AcDbArc
 50
237.7984383076
 51
242.0211461021
  0
SPLINE
  5
A9
330
1F
100
AcDbEntity
  8
0
  6
Continuous
 62
     7
370
    25
100
AcDbSpline
210
0.0
220
0.0
230
1.0
 70
     8
 71
     3
 72
    16
 73
    12
 74
     0
 42
0.00000001
 43
0.00000001
 40
0.0
 40
0.0
 40
0.0
 40
0.0
 40
0.1347595790864312
 40
0.2700207988599373
 40
0.3960629591195728
 40
0.5091515875631601
 40
0.6145758051161422
 40
0.7202830918048989
 40
0.8328572074327931
 40
0.9561493240418508
 40
0.9999999999999999
 40
0.9999999999999999
 40
0.9999999999999999
 40
0.9999999999999999
 10
8542.086303186235
 20
6651.139938486589
 30
0.0
 10
8542.126334842776
 20
6651.092386405116
 30
0.0
 10
8542.206547173157
 20
6650.997105230199
 30
0.0
 10
8542.317869272516
 20
6650.795154770359
 30
0.0
 10
8542.39965618059
 20
6650.585388908696
 30
0.0
 10
8542.441872184634
 20
6650.397345779698
 30
0.0
 10
8542.446825950912
 20
6650.248852586438
 30
0.0
 10
8542.419471049961
 20
6650.142931137822
 30
0.0
 10
8542.361685886424
 20
6650.085304402623
 30
0.0
 10
8542.296271727773
 20
6650.084179682058
 30
0.0
 10
8542.252267996104
 20
6650.105006324186
 30
0.0
 10
8542.240723415875
 20
6650.110470288987
 30
0.0
  0
ARC
  5
AA
330
1F
100
AcDbEntity
  8
0
  6
Continuous
 62
     7
370
    25
100
AcDbCircle
 10
8544.0186548597
 20
6652.9694338202
 30
0.0
 40
2.661021639406016
100
AcDbArc
 50
219.4837737104
 51
223.433810239
  0
SPLINE
  5
AB
330
1F
100
AcDbEntity
  8
0
  6
Continuous
 62
     7
370
    25
100
AcDbSpline
210
0.0
220
0.0
230
1.0
 70
     8
 71
     3
 72
    13
 73
     9
 74
     0
 42
0.00000001
 43
0.00000001
 40
0.0
 40
0.0
 40
0.0
 40
0.0
 40
0.1912350196657831
 40
0.3830645276018588
 40
0.5617575676958436
 40
0.7320257694395318
 40
0.9058232181829037
 40
1.0
 40
1.0
 40
1.0
 40
1.0
 10
8541.851908145576
 20
6652.030449011027
 30
0.0
 10
8541.83874457064
 20
6651.98971695799
 30
0.0
 10
8541.812376499443
 20
6651.908126229044
 30
0.0
 10
8541.805919996541
 20
6651.748282411279
 30
0.0
 10
8541.825826646198
 20
6651.587212699132
 30
0.0
 10
8541.86831666173
 20
6651.441792387487
 30
0.0
 10
8541.917826200694
 20
6651.339581166008
 30
0.0
 10
8541.95263328422
 20
6651.293568247393
 30
0.0
 10
8541.964865875032
 20
6651.277397481315
 30
0.0
  0
ARC
  5
AC
330
1F
100
AcDbEntity
  8
0
  6
Continuous
 62
     7
370
    25
100
AcDbCircle
 10
8544.3117513107
 20
6651.0154574934
 30
0.0
 40
2.661021641759552
100
AcDbArc
 50
153.6277209835
 51
157.5777575086
  0
SPLINE
  5
AD
330
1F
100
AcDbEntity
  8
0
  6
Continuous
 62
     7
370
    25
100
AcDbSpline
210
0.0
220
0.0
230
1.0
 70
     8
 71
     3
 72
    16
 73
    12
 74
     0
 42
0.00000001
 43
0.00000001
 40
0.0
 40
0.0
 40
0.0
 40
0.0
 40
0.1348147858417668
 40
0.2700723340770186
 40
0.3961092720444676
 40
0.5091935624065073
 40
0.614616413248682
 40
0.720325309918969
 40
0.832903137016798
 40
0.956199801809005
 40
1.0
 40
1.0
 40
1.0
 40
1.0
 10
8541.773250530392
 20
6653.226956192205
 30
0.0
 10
8541.802861679107
 20
6653.248964219887
 30
0.0
 10
8541.862181226277
 20
6653.293052554614
 30
0.0
 10
8541.94854820239
 20
6653.257473823563
 30
0.0
 10
8542.015038535475
 20
6653.149589609032
 30
0.0
 10
8542.053024429504
 20
6652.989656843076
 30
0.0
 10
8542.06319059724
 20
6652.806341175039
 30
0.0
 10
8542.048964769903
 20
6652.612829329468
 30
0.0
 10
8542.011625536732
 20
6652.418839196557
 30
0.0
 10
8541.96676107891
 20
6652.280760974314
 30
0.0
 10
8541.9357892407
 20
6652.214782559994
 30
0.0
 10
8541.927670760031
 20
6652.197487994603
 30
0.0
  0
ARC
  5
AE
330
1F
100
AcDbEntity
  8
0
  6
Continuous
 62
     7
370
    25
100
AcDbCircle
 10
8542.9987575535
 20
6652.0031755579
 30
0.0
 40
1.731908341849309
100
AcDbArc
 50
135.040385119
 51
139.263092911
  0
SPLINE
  5
AF
330
1F
100
AcDbEntity
  8
0
  6
Continuous
 62
     7
370
    25
100
AcDbSpline
210
0.0
220
0.0
230
1.0
 70
     8
 71
     3
 72
    13
 73
     9
 74
     0
 42
0.00000001
 43
0.00000001
 40
0.0
 40
0.0
 40
0.0
 40
0.0
 40
0.1912350196657811
 40
0.3830645276018578
 40
0.5617575676958192
 40
0.7320257694395197
 40
0.9058232181829113
 40
1.0
 40
1.0
 40
1.0
 40
1.0
 10
8541.629987266939
 20
6653.50992153527
 30
0.0
 10
8541.618802234096
 20
6653.455999201617
 30
0.0
 10
8541.596397397736
 20
6653.347986907092
 30
0.0
 10
8541.58602168199
 20
6653.214271174962
 30
0.0
 10
8541.594972720522
 20
6653.126238870293
 30
0.0
 10
8541.621079663399
 20
6653.090039043038
 30
0.0
 10
8541.653917975553
 20
6653.098969333607
 30
0.0
 10
8541.6780020366
 20
6653.12444323151
 30
0.0
 10
8541.686466131667
 20
6653.133395770415
 30
0.0
  0
ARC
  5
B0
330
1F
100
AcDbEntity
  8
0
  6
Continuous
 62
     7
370
    25
100
AcDbCircle
 10
8546.1666039846
 20
6652.4609482238
 30
0.0
 40
4.656311442658573
100
AcDbArc
 50
163.8549218304
 51
166.9806629868
  0
SPLINE
  5
B1
330
1F
100
AcDbEntity
  8
0
  6
Continuous
 62
     7
370
    25
100
AcDbSpline
210
0.0
220
0.0
230
1.0
 70
     8
 71
     3
 72
    13
 73
     9
 74
     0
 42
0.00000001
 43
0.00000001
 40
0.0
 40
0.0
 40
0.0
 40
0.0
 40
0.0208314972629505
 40
0.2311535804787393
 40
0.4420468881753465
 40
0.6666443466771212
 40
0.9126264229648289
 40
1.0
 40
1.0
 40
1.0
 40
1.0
 10
8541.852592513898
 20
6654.283058467241
 30
0.0
 10
8541.852895389862
 20
6654.284028121862
 30
0.0
 10
8541.856256207506
 20
6654.294787748732
 30
0.0
 10
8541.843899000345
 20
6654.255323375987
 30
0.0
 10
8541.8164285196
 20
6654.166781250467
 30
0.0
 10
8541.77141464015
 20
6654.019063749922
 30
0.0
 10
8541.727954930126
 20
6653.872877871507
 30
0.0
 10
8541.700999437617
 20
6653.78005905361
 30
0.0
 10
8541.69393431729
 20
6653.755730946213
 30
0.0
  0
LINE
  5
B2
330
1F
100
AcDbEntity
  8
0
  6
Continuous
 62
     7
370
    25
100
AcDbLine
 10
8541.4371472405
 20
6652.3416278463
 30
0.0
 11
8541.6596579199
 21
6650.858223317
 31
0.0
  0
SPLINE
  5
B3
330
1F
100
AcDbEntity
  8
0
  6
Continuous
 62
     7
370
    25
100
AcDbSpline
210
0.0
220
0.0
230
1.0
 70
    24
 71
     3
 72
   100
 73
    96
 74
     0
 42
0.00000001
 43
0.00000001
 40
0.0
 40
0.0
 40
0.0
 40
0.0
 40
0.0312499999999997
 40
0.0312499999999997
 40
0.0624999999999994
 40
0.0624999999999994
 40
0.0937499999999991
 40
0.0937499999999991
 40
0.1249999999999988
 40
0.1249999999999988
 40
0.1328124999999986
 40
0.1328124999999986
 40
0.1406249999999985
 40
0.1406249999999985
 40
0.1562499999999985
 40
0.1562499999999985
 40
0.1874999999999984
 40
0.1874999999999984
 40
0.2187499999999982
 40
0.2187499999999982
 40
0.2343749999999981
 40
0.2343749999999981
 40
0.242187499999998
 40
0.242187499999998
 40
0.2499999999999979
 40
0.2499999999999979
 40
0.2812499999999969
 40
0.2812499999999969
 40
0.3124999999999958
 40
0.3124999999999958
 40
0.3437499999999947
 40
0.3437499999999947
 40
0.3515624999999946
 40
0.3515624999999946
 40
0.3593749999999944
 40
0.3593749999999944
 40
0.3749999999999944
 40
0.3749999999999944
 40
0.4062499999999946
 40
0.4062499999999946
 40
0.4374999999999947
 40
0.4374999999999947
 40
0.4531249999999947
 40
0.4531249999999947
 40
0.4609374999999947
 40
0.4609374999999947
 40
0.4687499999999947
 40
0.4687499999999947
 40
0.4999999999999947
 40
0.4999999999999947
 40
0.5312499999999947
 40
0.5312499999999947
 40
0.5624999999999947
 40
0.5624999999999947
 40
0.5781249999999947
 40
0.5781249999999947
 40
0.5937499999999947
 40
0.5937499999999947
 40
0.6249999999999946
 40
0.6249999999999946
 40
0.6562499999999944
 40
0.6562499999999944
 40
0.6718749999999946
 40
0.6718749999999946
 40
0.6796874999999946
 40
0.6796874999999946
 40
0.6874999999999946
 40
0.6874999999999946
 40
0.7187499999999949
 40
0.7187499999999949
 40
0.7499999999999951
 40
0.7499999999999951
 40
0.7812499999999953
 40
0.7812499999999953
 40
0.7890624999999957
 40
0.7890624999999957
 40
0.7968749999999959
 40
0.7968749999999959
 40
0.8124999999999957
 40
0.8124999999999957
 40
0.843749999999996
 40
0.843749999999996
 40
0.8749999999999962
 40
0.8749999999999962
 40
0.8906249999999964
 40
0.8906249999999964
 40
0.8984374999999966
 40
0.8984374999999966
 40
0.9062499999999967
 40
0.9062499999999967
 40
0.9374999999999978
 40
0.9374999999999978
 40
0.968749999999999
 40
0.968749999999999
 40
1.0
 40
1.0
 40
1.0
 40
1.0
 10
8514.028574670676
 20
6896.984710053905
 30
0.0
 10
8514.052296823524
 20
6896.984710053905
 30
0.0
 10
8514.359466814009
 20
6896.984710053905
 30
0.0
 10
8515.537842973135
 20
6896.984710053905
 30
0.0
 10
8516.40292308212
 20
6896.984710053905
 30
0.0
 10
8518.668637895777
 20
6896.984710053905
 30
0.0
 10
8520.068636063577
 20
6896.984710053905
 30
0.0
 10
8523.397701094696
 20
6896.984710053905
 30
0.0
 10
8525.326958429896
 20
6896.984710053905
 30
0.0
 10
8528.078759637869
 20
6896.984710053905
 30
0.0
 10
8528.646136578696
 20
6896.984710053905
 30
0.0
 10
8529.815204854158
 20
6896.984710053905
 30
0.0
 10
8530.417706551854
 20
6896.984710053905
 30
0.0
 10
8532.271006905481
 20
6896.984710053905
 30
0.0
 10
8533.565225818957
 20
6896.984710053905
 30
0.0
 10
8537.620359887731
 20
6896.984710053905
 30
0.0
 10
8540.553406300138
 20
6896.984710053905
 30
0.0
 10
8546.872486115079
 20
6896.984710053905
 30
0.0
 10
8550.257780249089
 20
6896.984710053905
 30
0.0
 10
8555.676513412543
 20
6896.984710053905
 30
0.0
 10
8557.539700636937
 20
6896.984710053905
 30
0.0
 10
8560.42149318214
 20
6896.984710053905
 30
0.0
 10
8561.396602048948
 20
6896.984710053905
 30
0.0
 10
8563.376225498208
 20
6896.984710053905
 30
0.0
 10
8564.382027929812
 20
6896.984710053905
 30
0.0
 10
8569.459548654182
 20
6896.984710053905
 30
0.0
 10
8573.688582419854
 20
6896.984710053905
 30
0.0
 10
8582.468981072567
 20
6896.984710053905
 30
0.0
 10
8587.020503662598
 20
6896.984710053905
 30
0.0
 10
8596.447232152452
 20
6896.984710053905
 30
0.0
 10
8601.321913768206
 20
6896.984710053905
 30
0.0
 10
8607.621249691563
 20
6896.984710053905
 30
0.0
 10
8608.891450067109
 20
6896.984710053905
 30
0.0
 10
8611.452765415757
 20
6896.984710053905
 30
0.0
 10
8612.74391443275
 20
6896.984710053905
 30
0.0
 10
8616.627171999788
 20
6896.984710053905
 30
0.0
 10
8619.236248614052
 20
6896.984710053905
 30
0.0
 10
8627.123251118794
 20
6896.984710053905
 30
0.0
 10
8632.460591973955
 20
6896.984710053905
 30
0.0
 10
8643.290660077508
 20
6896.984710053905
 30
0.0
 10
8648.78340068919
 20
6896.984710053905
 30
0.0
 10
8657.141423732906
 20
6896.984710053905
 30
0.0
 10
8659.94727016487
 20
6896.984710053905
 30
0.0
 10
8664.186175685601
 20
6896.984710053905
 30
0.0
 10
8665.604170145822
 20
6896.984710053905
 30
0.0
 10
8668.45031516463
 20
6896.984710053905
 30
0.0
 10
8669.875153075285
 20
6896.984710053905
 30
0.0
 10
8676.988950384708
 20
6896.984710053905
 30
0.0
 10
8682.665902176659
 20
6896.984710053905
 30
0.0
 10
8693.992245693042
 20
6896.984710053905
 30
0.0
 10
8699.641638398647
 20
6896.984710053905
 30
0.0
 10
8710.913056854935
 20
6896.984710053905
 30
0.0
 10
8716.535085501855
 20
6896.984710053905
 30
0.0
 10
8724.946882983071
 20
6896.984710053905
 30
0.0
 10
8727.751955012978
 20
6896.984710053905
 30
0.0
 10
8733.29479898097
 20
6896.984710053905
 30
0.0
 10
8736.03944058787
 20
6896.984710053905
 30
0.0
 10
8744.194581228032
 20
6896.984710053905
 30
0.0
 10
8749.52656325036
 20
6896.984710053905
 30
0.0
 10
8759.982584494772
 20
6896.984710053905
 30
0.0
 10
8765.106358902469
 20
6896.984710053905
 30
0.0
 10
8772.634312821205
 20
6896.984710053905
 30
0.0
 10
8775.117290467908
 20
6896.984710053905
 30
0.0
 10
8778.801477314757
 20
6896.984710053905
 30
0.0
 10
8780.024498884419
 20
6896.984710053905
 30
0.0
 10
8782.44743683196
 20
6896.984710053905
 30
0.0
 10
8783.647042244216
 20
6896.984710053905
 30
0.0
 10
8789.586268518724
 20
6896.984710053905
 30
0.0
 10
8794.149547058581
 20
6896.984710053905
 30
0.0
 10
8802.911862688983
 20
6896.984710053905
 30
0.0
 10
8807.110997382555
 20
6896.984710053905
 30
0.0
 10
8815.142791966158
 20
6896.984710053905
 30
0.0
 10
8818.974865492686
 20
6896.984710053905
 30
0.0
 10
8823.529116142652
 20
6896.984710053905
 30
0.0
 10
8824.428970253599
 20
6896.984710053905
 30
0.0
 10
8826.195446798003
 20
6896.984710053905
 30
0.0
 10
8827.063122493048
 20
6896.984710053905
 30
0.0
 10
8829.619936264831
 20
6896.984710053905
 30
0.0
 10
8831.26290184208
 20
6896.984710053905
 30
0.0
 10
8836.009353708914
 20
6896.984710053905
 30
0.0
 10
8838.930238870378
 20
6896.984710053905
 30
0.0
 10
8844.292559843418
 20
6896.984710053905
 30
0.0
 10
8846.734229041434
 20
6896.984710053905
 30
0.0
 10
8850.029470623076
 20
6896.984710053905
 30
0.0
 10
8851.066412199958
 20
6896.984710053905
 30
0.0
 10
8852.527836417401
 20
6896.984710053905
 30
0.0
 10
8852.99895624582
 20
6896.984710053905
 30
0.0
 10
8853.904780372837
 20
6896.984710053905
 30
0.0
 10
8854.340149500445
 20
6896.984710053905
 30
0.0
 10
8856.43024856484
 20
6896.984710053905
 30
0.0
 10
8857.825631951446
 20
6896.984710053905
 30
0.0
 10
8860.07326076311
 20
6896.984710053905
 30
0.0
 10
8860.924836069416
 20
6896.984710053905
 30
0.0
 10
8862.083105053132
 20
6896.984710053905
 30
0.0
 10
8862.39001076382
 20
6896.984710053905
 30
0.0
 10
8862.413733014799
 20
6896.984710053905
 30
0.0
  0
ARC
  5
B4
330
1F
100
AcDbEntity
  8
0
  6
Continuous
 62
     7
370
    25
100
AcDbCircle
 10
8862.4137073598
 20
6891.9847243419
 30
0.0
 40
4.999985712113237
100
AcDbArc
 50
351.4400866328
 51
89.9997060145
  0
SPLINE
  5
B5
330
1F
100
AcDbEntity
  8
0
  6
Continuous
 62
     7
370
    25
100
AcDbSpline
210
0.0
220
0.0
230
1.0
 70
     8
 71
     3
 72
   102
 73
    98
 74
     0
 42
0.00000001
 43
0.00000001
 40
0.0
 40
0.0
 40
0.0
 40
0.0
 40
0.0312499999999996
 40
0.0312499999999996
 40
0.0624999999999992
 40
0.0624999999999992
 40
0.0937499999999988
 40
0.0937499999999988
 40
0.1015624999999986
 40
0.1015624999999986
 40
0.1093749999999985
 40
0.1093749999999985
 40
0.1249999999999979
 40
0.1249999999999979
 40
0.1562499999999969
 40
0.1562499999999969
 40
0.1874999999999959
 40
0.1874999999999959
 40
0.2031249999999954
 40
0.2031249999999954
 40
0.2109374999999952
 40
0.2109374999999952
 40
0.2187499999999949
 40
0.2187499999999949
 40
0.2499999999999948
 40
0.2499999999999948
 40
0.2812499999999946
 40
0.2812499999999946
 40
0.3124999999999944
 40
0.3124999999999944
 40
0.3203124999999943
 40
0.3203124999999943
 40
0.3281249999999941
 40
0.3281249999999941
 40
0.3437499999999941
 40
0.3437499999999941
 40
0.3749999999999938
 40
0.3749999999999938
 40
0.4062499999999934
 40
0.4062499999999934
 40
0.4218749999999932
 40
0.4218749999999932
 40
0.429687499999993
 40
0.429687499999993
 40
0.4374999999999928
 40
0.4374999999999928
 40
0.4687499999999921
 40
0.4687499999999921
 40
0.4999999999999913
 40
0.4999999999999913
 40
0.5312499999999906
 40
0.5312499999999906
 40
0.5390624999999903
 40
0.5390624999999903
 40
0.5468749999999902
 40
0.5468749999999902
 40
0.56249999999999
 40
0.56249999999999
 40
0.5937499999999897
 40
0.5937499999999897
 40
0.6249999999999893
 40
0.6249999999999893
 40
0.6406249999999892
 40
0.6406249999999892
 40
0.6484374999999891
 40
0.6484374999999891
 40
0.656249999999989
 40
0.656249999999989
 40
0.6874999999999889
 40
0.6874999999999889
 40
0.7187499999999889
 40
0.7187499999999889
 40
0.7499999999999888
 40
0.7499999999999888
 40
0.7578124999999888
 40
0.7578124999999888
 40
0.7656249999999888
 40
0.7656249999999888
 40
0.7812499999999893
 40
0.7812499999999893
 40
0.8124999999999906
 40
0.8124999999999906
 40
0.8437499999999919
 40
0.8437499999999919
 40
0.8593749999999927
 40
0.8593749999999927
 40
0.8671874999999931
 40
0.8671874999999931
 40
0.8749999999999936
 40
0.8749999999999936
 40
0.9062499999999952
 40
0.9062499999999952
 40
0.9374999999999968
 40
0.9374999999999968
 40
0.9687499999999984
 40
0.9687499999999984
 40
1.0
 40
1.0
 40
1.0
 40
1.0
 10
8867.357997033587
 20
6891.240508820012
 30
0.0
 10
8867.330607377302
 20
6891.220545749768
 30
0.0
 10
8867.012189398603
 20
6891.200874164196
 30
0.0
 10
8865.815730182128
 20
6891.161888106604
 30
0.0
 10
8864.937470047156
 20
6891.14253743173
 30
0.0
 10
8862.621430567691
 20
6891.104270253447
 30
0.0
 10
8861.184334597308
 20
6891.085442401912
 30
0.0
 10
8859.032496263393
 20
6891.062158099715
 30
0.0
 10
8858.584298327609
 20
6891.057514085211
 30
0.0
 10
8857.651845071357
 20
6891.048249674405
 30
0.0
 10
8857.166910240125
 20
6891.043623146375
 30
0.0
 10
8855.662643724465
 20
6891.029825143589
 30
0.0
 10
8854.595416279133
 20
6891.020733680638
 30
0.0
 10
8851.20427704687
 20
6890.993935145618
 30
0.0
 10
8848.691963668714
 20
6890.9766754986
 30
0.0
 10
8843.175192278173
 20
6890.943126696731
 30
0.0
 10
8840.170495097731
 20
6890.92679652
 30
0.0
 10
8835.288406222146
 20
6890.903119582957
 30
0.0
 10
8833.598573473673
 20
6890.895373809209
 30
0.0
 10
8830.968939508977
 20
6890.883955043098
 30
0.0
 10
8830.076570331863
 20
6890.880182181611
 30
0.0
 10
8828.259858224616
 20
6890.872700840911
 30
0.0
 10
8827.334409500454
 20
6890.868988215941
 30
0.0
 10
8822.650539092812
 20
6890.850674906863
 30
0.0
 10
8818.709640467214
 20
6890.836723686341
 30
0.0
 10
8810.450309150163
 20
6890.810339656568
 30
0.0
 10
8806.1324638415
 20
6890.797935071285
 30
0.0
 10
8797.12288816678
 20
6890.774504071749
 30
0.0
 10
8792.431058114476
 20
6890.763452651138
 30
0.0
 10
8786.324868063524
 20
6890.750558927691
 30
0.0
 10
8785.091555681758
 20
6890.748028743048
 30
0.0
 10
8782.60056877318
 20
6890.743063060213
 30
0.0
 10
8781.34313995876
 20
6890.740628302754
 30
0.0
 10
8777.555344322516
 20
6890.733502142582
 30
0.0
 10
8775.002575046283
 20
6890.728974446751
 30
0.0
 10
8767.263129462697
 20
6890.716023539982
 30
0.0
 10
8761.995542015236
 20
6890.708213050132
 30
0.0
 10
8751.246363750894
 20
6890.694275080375
 30
0.0
 10
8745.765038829719
 20
6890.68817942959
 30
0.0
 10
8737.381689528089
 20
6890.680263973515
 30
0.0
 10
8734.560278217807
 20
6890.677831603468
 30
0.0
 10
8730.286924169579
 20
6890.674495046029
 30
0.0
 10
8728.855595393441
 20
6890.673434951162
 30
0.0
 10
8725.978993083001
 20
6890.671420538774
 30
0.0
 10
8724.537816907501
 20
6890.670468458967
 30
0.0
 10
8717.331918996597
 20
6890.666005702596
 30
0.0
 10
8711.552662094033
 20
6890.663372726292
 30
0.0
 10
8699.96605738917
 20
6890.659837211914
 30
0.0
 10
8694.158706644803
 20
6890.658935177562
 30
0.0
 10
8682.515718409077
 20
6890.65891130294
 30
0.0
 10
8676.680079892685
 20
6890.659790200367
 30
0.0
 10
8669.367455662115
 20
6890.662002815294
 30
0.0
 10
8667.902795847185
 20
6890.662501979901
 30
0.0
 10
8664.977107534625
 20
6890.663612488346
 30
0.0
 10
8663.519476328458
 20
6890.664222442087
 30
0.0
 10
8659.162060852108
 20
6890.666216287468
 30
0.0
 10
8656.277741270786
 20
6890.667763797819
 30
0.0
 10
8647.685872265585
 20
6890.673073706442
 30
0.0
 10
8642.039330452662
 20
6890.677474680077
 30
0.0
 10
8630.90581075774
 20
6890.687941316301
 30
0.0
 10
8625.418819172872
 20
6890.694010911338
 30
0.0
 10
8617.310500463229
 20
6890.704488013723
 30
0.0
 10
8614.62817923368
 20
6890.708210077758
 30
0.0
 10
8610.63586312086
 20
6890.714112598564
 30
0.0
 10
8609.308448153102
 20
6890.716137763807
 30
0.0
 10
8606.675233694355
 20
6890.720281827303
 30
0.0
 10
8605.369363639242
 20
6890.722400598633
 30
0.0
 10
8598.89306458216
 20
6890.733228725096
 30
0.0
 10
8593.88123612084
 20
6890.742633932272
 30
0.0
 10
8584.188851560937
 20
6890.76305569639
 30
0.0
 10
8579.508822670636
 20
6890.774043651033
 30
0.0
 10
8570.480122946832
 20
6890.797461330911
 30
0.0
 10
8566.131290926895
 20
6890.809915817566
 30
0.0
 10
8560.90963918964
 20
6890.826570010212
 30
0.0
 10
8559.87529803023
 20
6890.829960880487
 30
0.0
 10
8557.839488926535
 20
6890.836808933965
 30
0.0
 10
8556.836684613101
 20
6890.840266443959
 30
0.0
 10
8553.872986449
 20
6890.850740010923
 30
0.0
 10
8551.956769106051
 20
6890.857856813223
 30
0.0
 10
8546.383599831666
 20
6890.879625568856
 30
0.0
 10
8542.901543956805
 20
6890.894690657381
 30
0.0
 10
8536.40122555259
 20
6890.926123947434
 30
0.0
 10
8533.383705423828
 20
6890.942463672935
 30
0.0
 10
8529.211306406463
 20
6890.967769183394
 30
0.0
 10
8527.879574527677
 20
6890.976348905539
 30
0.0
 10
8525.972417138844
 20
6890.989457860037
 30
0.0
 10
8525.35240608404
 20
6890.993863651971
 30
0.0
 10
8524.149299518409
 20
6891.002710699268
 30
0.0
 10
8523.565375804239
 20
6891.007157578058
 30
0.0
 10
8520.733178356146
 20
6891.029518215315
 30
0.0
 10
8518.74707630275
 20
6891.047756794602
 30
0.0
 10
8515.319000513739
 20
6891.084715386524
 30
0.0
 10
8513.87682941903
 20
6891.103479857935
 30
0.0
 10
8511.541511483701
 20
6891.141802624321
 30
0.0
 10
8510.64901234378
 20
6891.16128129947
 30
0.0
 10
8509.431136563657
 20
6891.20071913447
 30
0.0
 10
8509.111700081674
 20
6891.220546301192
 30
0.0
 10
8509.084310663278
 20
6891.240508758233
 30
0.0
  0
ARC
  5
B6
330
1F
100
AcDbEntity
  8
0
  6
Continuous
 62
     7
370
    25
100
AcDbCircle
 10
8514.028600327
 20
6891.9847243426
 30
0.0
 40
4.999985711405657
100
AcDbArc
 50
90.0002940001
 51
188.5599140926
  0
LINE
  5
B7
330
1F
100
AcDbEntity
  8
0
  6
Continuous
 62
     7
370
    25
100
AcDbLine
 10
8516.3967469527
 20
6842.480755743
 30
0.0
 11
8546.0648375387
 21
6644.6934851694
 31
0.0
  0
LWPOLYLINE
  5
B8
330
1F
100
AcDbEntity
  8
0
  6
Continuous
 62
     7
370
    25
100
AcDbPolyline
 90
        2
 70
   128
 43
0.0
 10
8546.0648375387
 20
6644.6934851694
 10
8546.0648375387
 20
6644.6934851694
  0
SPLINE
  5
B9
330
1F
100
AcDbEntity
  8
0
  6
Continuous
 62
     7
370
    25
100
AcDbSpline
210
0.0
220
0.0
230
1.0
 70
     8
 71
     3
 72
    12
 73
     8
 74
     0
 42
0.00000001
 43
0.00000001
 40
0.0
 40
0.0
 40
0.0
 40
0.0
 40
0.0254569050824097
 40
0.1272845254120482
 40
0.5345950067306021
 40
0.7700985839728595
 40
1.0
 40
1.0
 40
1.0
 40
1.0
 10
8867.359898466353
 20
6891.243007789254
 30
0.0
 10
8867.359875196045
 20
6891.242990909136
 30
0.0
 10
8867.359758844517
 20
6891.242906508548
 30
0.0
 10
8867.36660031443
 20
6891.247869263093
 30
0.0
 10
8867.274027655752
 20
6891.180717702325
 30
0.0
 10
8867.528127752277
 20
6891.365040139608
 30
0.0
 10
8867.415974936801
 20
6891.282950635195
 30
0.0
 10
8867.360573530581
 20
6891.242399945841
 30
0.0
  0
LINE
  5
BA
330
1F
100
AcDbEntity
  8
0
  6
Continuous
 62
     7
370
    25
100
AcDbLine
 10
8808.8598984664
 20
6501.2430077893
 30
0.0
 11
8867.3597124905
 21
6891.2417679501
 31
0.0
  0
SPLINE
  5
BB
330
1F
100
AcDbEntity
  8
0
  6
Continuous
 62
     7
370
    25
100
AcDbSpline
210
0.0
220
0.0
230
1.0
 70
     8
 71
     3
 72
   111
 73
   107
 74
     0
 42
0.00000001
 43
0.00000001
 40
0.0
 40
0.0
 40
0.0
 40
0.0
 40
0.00390625
 40
0.00390625
 40
0.0078124999999999
 40
0.0156249999999998
 40
0.0156249999999998
 40
0.03125
 40
0.03125
 40
0.062500000000001
 40
0.062500000000001
 40
0.0937500000000019
 40
0.0937500000000019
 40
0.101562500000002
 40
0.101562500000002
 40
0.1093750000000021
 40
0.1093750000000021
 40
0.125000000000002
 40
0.125000000000002
 40
0.1562500000000017
 40
0.1562500000000017
 40
0.1875000000000014
 40
0.1875000000000014
 40
0.2031250000000013
 40
0.2031250000000013
 40
0.2109375000000012
 40
0.2109375000000012
 40
0.2187500000000012
 40
0.2187500000000012
 40
0.2500000000000011
 40
0.2500000000000011
 40
0.2812500000000009
 40
0.2812500000000009
 40
0.3125000000000007
 40
0.3125000000000007
 40
0.3203125000000007
 40
0.3203125000000007
 40
0.3281250000000006
 40
0.3281250000000006
 40
0.3437500000000003
 40
0.3437500000000003
 40
0.3749999999999999
 40
0.3749999999999999
 40
0.4062499999999996
 40
0.4062499999999996
 40
0.4218749999999994
 40
0.4218749999999994
 40
0.4374999999999992
 40
0.4374999999999992
 40
0.4687499999999989
 40
0.4687499999999989
 40
0.4999999999999987
 40
0.4999999999999987
 40
0.5312499999999984
 40
0.5312499999999984
 40
0.5390624999999983
 40
0.5390624999999983
 40
0.5468749999999982
 40
0.5468749999999982
 40
0.5624999999999981
 40
0.5624999999999981
 40
0.5937499999999981
 40
0.5937499999999981
 40
0.624999999999998
 40
0.624999999999998
 40
0.6406249999999981
 40
0.6406249999999981
 40
0.6484374999999981
 40
0.6484374999999981
 40
0.6562499999999981
 40
0.6562499999999981
 40
0.6874999999999978
 40
0.6874999999999978
 40
0.7187499999999976
 40
0.7187499999999976
 40
0.7499999999999972
 40
0.7499999999999972
 40
0.7578124999999973
 40
0.7578124999999973
 40
0.7656249999999973
 40
0.7656249999999973
 40
0.781249999999997
 40
0.781249999999997
 40
0.8124999999999969
 40
0.8124999999999969
 40
0.8437499999999967
 40
0.8437499999999967
 40
0.8593749999999967
 40
0.8593749999999967
 40
0.8749999999999968
 40
0.8749999999999968
 40
0.9062499999999973
 40
0.9062499999999973
 40
0.937499999999998
 40
0.937499999999998
 40
0.9531249999999984
 40
0.9531249999999984
 40
0.9687499999999989
 40
0.9687499999999989
 40
0.9843749999999994
 40
0.9843749999999994
 40
0.9921874999999997
 40
0.9921874999999997
 40
0.9960937499999998
 40
0.9960937499999998
 40
1.0
 40
1.0
 40
1.0
 40
1.0
 10
8567.582409145749
 20
6501.243007789253
 30
0.0
 10
8567.582409145749
 20
6501.243007789253
 30
0.0
 10
8567.582628505934
 20
6501.240671090274
 30
0.0
 10
8567.591354336966
 20
6501.235674230791
 30
0.0
 10
8567.613706874758
 20
6501.22819327002
 30
0.0
 10
8567.663675103335
 20
6501.220753951426
 30
0.0
 10
8567.800040093707
 20
6501.205927423368
 30
0.0
 10
8567.939495657536
 20
6501.196112504302
 30
0.0
 10
8568.501312148916
 20
6501.166850622304
 30
0.0
 10
8569.066711002857
 20
6501.147586122256
 30
0.0
 10
8570.57744109147
 20
6501.109422612224
 30
0.0
 10
8571.523007485099
 20
6501.09057077851
 30
0.0
 10
8572.947367877827
 20
6501.067313355095
 30
0.0
 10
8573.244389586149
 20
6501.062675939688
 30
0.0
 10
8573.862977126873
 20
6501.053427778201
 30
0.0
 10
8574.18490779648
 20
6501.048812053329
 30
0.0
 10
8575.185406867839
 20
6501.035037862326
 30
0.0
 10
8575.896243155776
 20
6501.025983683503
 30
0.0
 10
8578.157706986432
 20
6500.999180993147
 30
0.0
 10
8579.837170545892
 20
6500.981824353069
 30
0.0
 10
8583.531973737394
 20
6500.94815397252
 30
0.0
 10
8585.54725083219
 20
6500.931815407942
 30
0.0
 10
8588.824653020933
 20
6500.907994235657
 30
0.0
 10
8589.95966543401
 20
6500.900166194491
 30
0.0
 10
8591.72696196388
 20
6500.888630411429
 30
0.0
 10
8592.326856391805
 20
6500.88481786529
 30
0.0
 10
8593.548444644439
 20
6500.877256908435
 30
0.0
 10
8594.171040622707
 20
6500.873503284355
 30
0.0
 10
8597.32584435934
 20
6500.85497050523
 30
0.0
 10
8599.982022990982
 20
6500.840893496711
 30
0.0
 10
8605.550861520487
 20
6500.814121421929
 30
0.0
 10
8608.463756789777
 20
6500.801456180179
 30
0.0
 10
8614.54471219734
 20
6500.777576237742
 30
0.0
 10
8617.712698324964
 20
6500.766340442364
 30
0.0
 10
8621.836439945764
 20
6500.753168306295
 30
0.0
 10
8622.66940189335
 20
6500.7505767821
 30
0.0
 10
8624.351947032108
 20
6500.745488669402
 30
0.0
 10
8625.201845815134
 20
6500.742991372532
 30
0.0
 10
8627.762225822496
 20
6500.73568056453
 30
0.0
 10
8629.488015158327
 20
6500.731033448698
 30
0.0
 10
8634.72084158775
 20
6500.717741556407
 30
0.0
 10
8638.283174162534
 20
6500.709741613386
 30
0.0
 10
8645.553373703975
 20
6500.695417121111
 30
0.0
 10
8649.261335375544
 20
6500.689120707174
 30
0.0
 10
8654.933576785206
 20
6500.680957478698
 30
0.0
 10
8656.84274371725
 20
6500.678449041986
 30
0.0
 10
8660.698579320493
 20
6500.673862593405
 30
0.0
 10
8662.650040522423
 20
6500.671780876883
 30
0.0
 10
8668.50230000473
 20
6500.666256489787
 30
0.0
 10
8672.413962137362
 20
6500.663528372845
 30
0.0
 10
8680.256954233908
 20
6500.659870065578
 30
0.0
 10
8684.188285260378
 20
6500.658937635265
 30
0.0
 10
8692.070688613803
 20
6500.658908940954
 30
0.0
 10
8696.0217607273
 20
6500.659813380126
 30
0.0
 10
8700.97326641176
 20
6500.662098825536
 30
0.0
 10
8701.965381067163
 20
6500.662614781115
 30
0.0
 10
8703.945152032587
 20
6500.663761499463
 30
0.0
 10
8704.931508538919
 20
6500.664391351173
 30
0.0
 10
8707.88010259549
 20
6500.666449879863
 30
0.0
 10
8709.831871562135
 20
6500.668048258235
 30
0.0
 10
8715.645900392763
 20
6500.67351918944
 30
0.0
 10
8719.467038334584
 20
6500.678047593107
 30
0.0
 10
8727.001151092129
 20
6500.688834714117
 30
0.0
 10
8730.714118489308
 20
6500.69510097333
 30
0.0
 10
8736.200749285961
 20
6500.70586972336
 30
0.0
 10
8738.015808024798
 20
6500.709681404193
 30
0.0
 10
8740.717303223637
 20
6500.715738003769
 30
0.0
 10
8741.615243101853
 20
6500.717815884225
 30
0.0
 10
8743.394705139772
 20
6500.722064046603
 30
0.0
 10
8744.27715951203
 20
6500.72423627828
 30
0.0
 10
8748.653434217094
 20
6500.73533787576
 30
0.0
 10
8752.039553127255
 20
6500.744997830957
 30
0.0
 10
8758.58675175712
 20
6500.765858175804
 30
0.0
 10
8761.747993057847
 20
6500.777027229846
 30
0.0
 10
8767.845167568546
 20
6500.800895648897
 30
0.0
 10
8770.78107803721
 20
6500.813615273093
 30
0.0
 10
8774.304793096273
 20
6500.830525311063
 30
0.0
 10
8775.001396514532
 20
6500.833952431334
 30
0.0
 10
8776.372439633407
 20
6500.840867424315
 30
0.0
 10
8777.047761460643
 20
6500.844359496951
 30
0.0
 10
8779.04345716525
 20
6500.854939817409
 30
0.0
 10
8780.333584041104
 20
6500.862131984961
 30
0.0
 10
8784.08472835213
 20
6500.884134064093
 30
0.0
 10
8786.426780443895
 20
6500.89939097292
 30
0.0
 10
8790.794939254947
 20
6500.931037674354
 30
0.0
 10
8792.821316537229
 20
6500.947396083464
 30
0.0
 10
8795.619663348332
 20
6500.97281866097
 30
0.0
 10
8796.512606865172
 20
6500.981445660034
 30
0.0
 10
8798.214165066376
 20
6500.998998678931
 30
0.0
 10
8799.016534604814
 20
6501.007867545276
 30
0.0
 10
8801.281352215827
 20
6501.034675276476
 30
0.0
 10
8802.602088867598
 20
6501.052819022286
 30
0.0
 10
8804.873394250239
 20
6501.089739860451
 30
0.0
 10
8805.823897206545
 20
6501.108537037006
 30
0.0
 10
8806.96863318915
 20
6501.137235657044
 30
0.0
 10
8807.303331085257
 20
6501.146872814355
 30
0.0
 10
8807.877686778247
 20
6501.166306259426
 30
0.0
 10
8808.117588758818
 20
6501.176115908387
 30
0.0
 10
8808.499030981122
 20
6501.195850566909
 30
0.0
 10
8808.640316889752
 20
6501.205754821296
 30
0.0
 10
8808.77811366171
 20
6501.220678117074
 30
0.0
 10
8808.811684398506
 20
6501.225663782588
 30
0.0
 10
8808.843441765264
 20
6501.233160276576
 30
0.0
 10
8808.850924086646
 20
6501.235661310669
 30
0.0
 10
8808.8596803599
 20
6501.240668025615
 30
0.0
 10
8808.859898466351
 20
6501.243007789253
 30
0.0
 10
8808.859898466351
 20
6501.243007789253
 30
0.0
  0
LINE
  5
BC
330
1F
100
AcDbEntity
  8
0
  6
Continuous
 62
     7
370
    25
100
AcDbLine
 10
8509.0824091457
 20
6891.2430077893
 30
0.0
 11
8516.3967439859
 21
6842.4807755218
 31
0.0
  0
LINE
  5
BD
330
1F
100
AcDbEntity
  8
0
  6
Continuous
 62
     7
370
    25
100
AcDbLine
 10
8546.0648405055
 20
6644.6934653906
 30
0.0
 11
8567.5824091457
 21
6501.2430077893
 31
0.0
  0
SPLINE
  5
BE
330
1F
100
AcDbEntity
  8
0
  6
Continuous
 62
     7
370
    25
100
AcDbSpline
210
0.0
220
0.0
230
1.0
 70
     8
 71
     3
 72
    11
 73
     7
 74
     0
 42
0.00000001
 43
0.00000001
 40
0.0
 40
0.0
 40
0.0
 40
0.0
 40
0.1239730561314177
 40
0.2509413598295657
 40
0.5048767118275757
 40
1.0
 40
1.0
 40
1.0
 40
1.0
 10
8509.082919205497
 20
6891.241536031192
 30
0.0
 10
8509.053095033934
 20
6891.263445902902
 30
0.0
 10
8508.992726124745
 20
6891.307794999166
 30
0.0
 10
8509.133902686357
 20
6891.205808743243
 30
0.0
 10
8509.047885339125
 20
6891.267947862432
 30
0.0
 10
8509.068670366663
 20
6891.25293271322
 30
0.0
 10
8509.082409145747
 20
6891.243007789254
 30
0.0
  0
ARC
  5
BF
330
1F
100
AcDbEntity
  8
0
  6
Continuous
 62
     7
370
    25
100
AcDbCircle
 10
8803.915216702
 20
6501.9847100539
 30
0.0
 40
5.0
100
AcDbArc
 50
270.0
 51
351.46923439
  0
SPLINE
  5
C0
330
1F
100
AcDbEntity
  8
0
  6
Continuous
 62
     7
370
    25
100
AcDbSpline
210
0.0
220
0.0
230
1.0
 70
    24
 71
     3
 72
   110
 73
   106
 74
     0
 42
0.00000001
 43
0.00000001
 40
0.0
 40
0.0
 40
0.0
 40
0.0
 40
0.0039062500000002
 40
0.0039062500000002
 40
0.0078125000000003
 40
0.0156250000000002
 40
0.0156250000000002
 40
0.0312500000000004
 40
0.0312500000000004
 40
0.0468750000000007
 40
0.0468750000000007
 40
0.0625000000000009
 40
0.0625000000000009
 40
0.0937500000000013
 40
0.0937500000000013
 40
0.1250000000000018
 40
0.1250000000000018
 40
0.1406250000000022
 40
0.1406250000000022
 40
0.1562500000000027
 40
0.1562500000000027
 40
0.1875000000000032
 40
0.1875000000000032
 40
0.2187500000000038
 40
0.2187500000000038
 40
0.2343750000000041
 40
0.2343750000000041
 40
0.2421875000000042
 40
0.2421875000000042
 40
0.2500000000000042
 40
0.2500000000000042
 40
0.2812500000000042
 40
0.2812500000000042
 40
0.3125000000000042
 40
0.3125000000000042
 40
0.3437500000000042
 40
0.3437500000000042
 40
0.3515625000000043
 40
0.3515625000000043
 40
0.3593750000000043
 40
0.3593750000000043
 40
0.3750000000000044
 40
0.3750000000000044
 40
0.4062500000000046
 40
0.4062500000000046
 40
0.4375000000000047
 40
0.4375000000000047
 40
0.4531250000000048
 40
0.4531250000000048
 40
0.4609375000000049
 40
0.4609375000000049
 40
0.4687500000000049
 40
0.4687500000000049
 40
0.5000000000000051
 40
0.5000000000000051
 40
0.5312500000000053
 40
0.5312500000000053
 40
0.5625000000000056
 40
0.5625000000000056
 40
0.5781250000000057
 40
0.5781250000000057
 40
0.5937500000000059
 40
0.5937500000000059
 40
0.6250000000000061
 40
0.6250000000000061
 40
0.6562500000000063
 40
0.6562500000000063
 40
0.6718750000000064
 40
0.6718750000000064
 40
0.6796875000000066
 40
0.6796875000000066
 40
0.6875000000000067
 40
0.6875000000000067
 40
0.7187500000000069
 40
0.7187500000000069
 40
0.7500000000000071
 40
0.7500000000000071
 40
0.7812500000000074
 40
0.7812500000000074
 40
0.7890625000000075
 40
0.7890625000000075
 40
0.7968750000000077
 40
0.8125000000000075
 40
0.8125000000000075
 40
0.8437500000000072
 40
0.8437500000000072
 40
0.8750000000000069
 40
0.8750000000000069
 40
0.8906250000000066
 40
0.8906250000000066
 40
0.8984375000000061
 40
0.8984375000000061
 40
0.9062500000000057
 40
0.9062500000000057
 40
0.9375000000000037
 40
0.9375000000000037
 40
0.9687500000000016
 40
0.9687500000000016
 40
0.9843750000000008
 40
0.9843750000000008
 40
0.9921875000000003
 40
0.9921875000000003
 40
0.9960937500000001
 40
0.9960937500000001
 40
1.0
 40
1.0
 40
1.0
 40
1.0
 10
8803.915216702011
 20
6496.984710053905
 30
0.0
 10
8803.915216702011
 20
6496.984710053905
 30
0.0
 10
8803.915425655036
 20
6496.984710053905
 30
0.0
 10
8803.907935286592
 20
6496.984710053905
 30
0.0
 10
8803.887778741915
 20
6496.984710053905
 30
0.0
 10
8803.840912553253
 20
6496.984710053905
 30
0.0
 10
8803.711641731416
 20
6496.984710053905
 30
0.0
 10
8803.57810165031
 20
6496.984710053905
 30
0.0
 10
8803.2161069014
 20
6496.984710053905
 30
0.0
 10
8802.987890086966
 20
6496.984710053905
 30
0.0
 10
8802.440777891894
 20
6496.984710053905
 30
0.0
 10
8802.121634072571
 20
6496.984710053905
 30
0.0
 10
8801.029274504204
 20
6496.984710053905
 30
0.0
 10
8800.121283857083
 20
6496.984710053905
 30
0.0
 10
8797.950058171282
 20
6496.984710053905
 30
0.0
 10
8796.68689258256
 20
6496.984710053905
 30
0.0
 10
8794.519978157858
 20
6496.984710053905
 30
0.0
 10
8793.75217130425
 20
6496.984710053905
 30
0.0
 10
8792.123666404741
 20
6496.984710053905
 30
0.0
 10
8791.26884675557
 20
6496.984710053905
 30
0.0
 10
8788.589805237705
 20
6496.984710053905
 30
0.0
 10
8786.649428392411
 20
6496.984710053905
 30
0.0
 10
8782.46594121718
 20
6496.984710053905
 30
0.0
 10
8780.222554214342
 20
6496.984710053905
 30
0.0
 10
8776.628961897386
 20
6496.984710053905
 30
0.0
 10
8775.392948861925
 20
6496.984710053905
 30
0.0
 10
8773.480855662865
 20
6496.984710053905
 30
0.0
 10
8772.833806814684
 20
6496.984710053905
 30
0.0
 10
8771.520129095441
 20
6496.984710053905
 30
0.0
 10
8770.852676422615
 20
6496.984710053905
 30
0.0
 10
8767.475921791192
 20
6496.984710053905
 30
0.0
 10
8764.662192228838
 20
6496.984710053905
 30
0.0
 10
8758.818299404393
 20
6496.984710053905
 30
0.0
 10
8755.788163546527
 20
6496.984710053905
 30
0.0
 10
8749.512080873914
 20
6496.984710053905
 30
0.0
 10
8746.265965382185
 20
6496.984710053905
 30
0.0
 10
8742.070389798268
 20
6496.984710053905
 30
0.0
 10
8741.224360845494
 20
6496.984710053905
 30
0.0
 10
8739.518327287191
 20
6496.984710053905
 30
0.0
 10
8738.657363852391
 20
6496.984710053905
 30
0.0
 10
8736.066899496984
 20
6496.984710053905
 30
0.0
 10
8734.326410271411
 20
6496.984710053905
 30
0.0
 10
8729.065106372313
 20
6496.984710053905
 30
0.0
 10
8725.504506892936
 20
6496.984710053905
 30
0.0
 10
8718.279373319285
 20
6496.984710053905
 30
0.0
 10
8714.614847829827
 20
6496.984710053905
 30
0.0
 10
8709.038972109876
 20
6496.984710053905
 30
0.0
 10
8707.167126574917
 20
6496.984710053905
 30
0.0
 10
8704.33924071519
 20
6496.984710053905
 30
0.0
 10
8703.3932575906
 20
6496.984710053905
 30
0.0
 10
8701.49451147072
 20
6496.984710053905
 30
0.0
 10
8700.542698887737
 20
6496.984710053905
 30
0.0
 10
8695.792735955618
 20
6496.984710053905
 30
0.0
 10
8692.002504842942
 20
6496.984710053905
 30
0.0
 10
8684.441014526255
 20
6496.984710053905
 30
0.0
 10
8680.669756518146
 20
6496.984710053905
 30
0.0
 10
8673.146137503454
 20
6496.984710053905
 30
0.0
 10
8669.393775407783
 20
6496.984710053905
 30
0.0
 10
8663.779866120545
 20
6496.984710053905
 30
0.0
 10
8661.907520211533
 20
6496.984710053905
 30
0.0
 10
8658.207610613348
 20
6496.984710053905
 30
0.0
 10
8656.375679480147
 20
6496.984710053905
 30
0.0
 10
8650.932989354076
 20
6496.984710053905
 30
0.0
 10
8647.375190592316
 20
6496.984710053905
 30
0.0
 10
8640.399601755431
 20
6496.984710053905
 30
0.0
 10
8636.981720358881
 20
6496.984710053905
 30
0.0
 10
8631.961174073424
 20
6496.984710053905
 30
0.0
 10
8630.305410777097
 20
6496.984710053905
 30
0.0
 10
8627.84894226255
 20
6496.984710053905
 30
0.0
 10
8627.033516389967
 20
6496.984710053905
 30
0.0
 10
8625.418632839068
 20
6496.984710053905
 30
0.0
 10
8624.619177662982
 20
6496.984710053905
 30
0.0
 10
8620.6613669645
 20
6496.984710053905
 30
0.0
 10
8617.62100271627
 20
6496.984710053905
 30
0.0
 10
8611.785172113176
 20
6496.984710053905
 30
0.0
 10
8608.989777535027
 20
6496.984710053905
 30
0.0
 10
8603.645684871994
 20
6496.984710053905
 30
0.0
 10
8601.096755053155
 20
6496.984710053905
 30
0.0
 10
8598.069311861542
 20
6496.984710053905
 30
0.0
 10
8597.471593786779
 20
6496.984710053905
 30
0.0
 10
8596.298797714364
 20
6496.984710053905
 30
0.0
 10
8594.571004970134
 20
6496.984710053905
 30
0.0
 10
8592.93651830838
 20
6496.984710053905
 30
0.0
 10
8589.790095037877
 20
6496.984710053905
 30
0.0
 10
8587.855365943618
 20
6496.984710053905
 30
0.0
 10
8584.30807230593
 20
6496.984710053905
 30
0.0
 10
8582.695568856283
 20
6496.984710053905
 30
0.0
 10
8580.524045024153
 20
6496.984710053905
 30
0.0
 10
8579.841436396577
 20
6496.984710053905
 30
0.0
 10
8578.880577467837
 20
6496.984710053905
 30
0.0
 10
8578.571145380018
 20
6496.984710053905
 30
0.0
 10
8577.97638451436
 20
6496.984710053905
 30
0.0
 10
8577.69068072154
 20
6496.984710053905
 30
0.0
 10
8576.320091143658
 20
6496.984710053905
 30
0.0
 10
8575.408543520642
 20
6496.984710053905
 30
0.0
 10
8573.951463158097
 20
6496.984710053905
 30
0.0
 10
8573.405681631177
 20
6496.984710053905
 30
0.0
 10
8572.864897362733
 20
6496.984710053905
 30
0.0
 10
8572.73096295407
 20
6496.984710053905
 30
0.0
 10
8572.601465930153
 20
6496.984710053905
 30
0.0
 10
8572.570185327057
 20
6496.984710053905
 30
0.0
 10
8572.541098788433
 20
6496.984710053905
 30
0.0
 10
8572.53437604871
 20
6496.984710053905
 30
0.0
 10
8572.526881747433
 20
6496.984710053905
 30
0.0
 10
8572.52709091009
 20
6496.984710053905
 30
0.0
 10
8572.52709091009
 20
6496.984710053905
 30
0.0
  0
ARC
  5
C1
330
1F
100
AcDbEntity
  8
0
  6
Continuous
 62
     7
370
    25
100
AcDbCircle
 10
8572.5270909101
 20
6501.9847100539
 30
0.0
 40
5.0
100
AcDbArc
 50
188.53076561
 51
270.0
  0
LINE
  5
C2
330
1F
100
AcDbEntity
  8
0
  6
Continuous
 62
     8
370
    25
100
AcDbLine
 10
8514.7977396238
 20
6833.0636955696
 30
0.0
 11
8514.9538877503
 21
6833.0871177886
 31
0.0
  0
LINE
  5
C3
330
1F
100
AcDbEntity
  8
0
  6
Continuous
 62
     8
370
    25
100
AcDbLine
 10
8514.3302667383
 20
6836.1801814728
 30
0.0
 11
8514.485435963
 21
6836.2034568565
 31
0.0
  0
LINE
  5
C4
330
1F
100
AcDbEntity
  8
0
  6
Continuous
 62
     8
370
    25
100
AcDbLine
 10
8514.9894889617
 20
6833.1730007323
 30
0.0
 11
8514.6873240968
 21
6833.1276760026
 31
0.0
  0
LINE
  5
C5
330
1F
100
AcDbEntity
  8
0
  6
Continuous
 62
     8
370
    25
100
AcDbLine
 10
8514.2434823396
 20
6836.086621051
 30
0.0
 11
8514.5433605571
 21
6836.1316027837
 31
0.0
  0
LINE
  5
C6
330
1F
100
AcDbEntity
  8
0
  6
Continuous
 62
     8
370
    25
100
AcDbLine
 10
8542.2407234159
 20
6650.110470289
 30
0.0
 11
8542.3968715423
 21
6650.133892508
 31
0.0
  0
LINE
  5
C7
330
1F
100
AcDbEntity
  8
0
  6
Continuous
 62
     8
370
    25
100
AcDbLine
 10
8541.7732505304
 20
6653.2269561922
 30
0.0
 11
8541.9284197551
 21
6653.2502315759
 31
0.0
  0
LINE
  5
C8
330
1F
100
AcDbEntity
  8
0
  6
Continuous
 62
     8
370
    25
100
AcDbLine
 10
8541.6864661317
 20
6653.1333957704
 30
0.0
 11
8541.9863443492
 21
6653.178377503
 31
0.0
  0
LINE
  5
C9
330
1F
100
AcDbEntity
  8
0
  6
Continuous
 62
     8
370
    25
100
AcDbLine
 10
8542.4324727538
 20
6650.2197754517
 30
0.0
 11
8542.1303078889
 21
6650.1744507219
 31
0.0
  0
LINE
  5
CA
330
1F
100
AcDbEntity
  8
0
  6
Continuous
 62
     8
370
    25
100
AcDbLine
 10
8867.3605735306
 20
6891.2423999458
 30
0.0
 11
8867.3579970336
 21
6891.24050882
 31
0.0
  0
LINE
  5
CB
330
1F
100
AcDbEntity
  8
0
  6
Continuous
 62
     8
370
    25
100
AcDbLine
 10
8509.0843106633
 20
6891.2405087582
 30
0.0
 11
8509.0829192055
 21
6891.2415360312
 31
0.0
  0
LINE
  5
CC
330
1F
100
AcDbEntity
  8
0
  6
Continuous
 62
     7
370
    25
100
AcDbLine
 10
9374.6125701833
 20
6834.9895628701
 30
0.0
 11
9374.6125701833
 21
6834.5531508623
 31
0.0
  0
LINE
  5
CD
330
1F
100
AcDbEntity
  8
0
  6
Continuous
 62
     7
370
    25
100
AcDbLine
 10
9376.1125701833
 20
6834.5531508623
 30
0.0
 11
9376.1125701833
 21
6834.9895628701
 31
0.0
  0
LINE
  5
CE
330
1F
100
AcDbEntity
  8
0
  6
Continuous
 62
     7
370
    25
100
AcDbLine
 10
9373.5911947888
 20
6834.5943928003
 30
0.0
 11
9373.5911947888
 21
6834.9895628701
 31
0.0
  0
LINE
  5
CF
330
1F
100
AcDbEntity
  8
0
  6
Continuous
 62
     7
370
    25
100
AcDbLine
 10
9377.1339455778
 20
6834.9895628701
 30
0.0
 11
9377.1339455778
 21
6834.5943928003
 31
0.0
  0
LINE
  5
D0
330
1F
100
AcDbEntity
  8
0
  6
Continuous
 62
     7
370
    25
100
AcDbLine
 10
9379.8625701833
 20
6834.9895628701
 30
0.0
 11
9379.8625701833
 21
6835.0637330965
 31
0.0
  0
LINE
  5
D1
330
1F
100
AcDbEntity
  8
0
  6
Continuous
 62
     7
370
    25
100
AcDbLine
 10
9370.8625701833
 20
6835.0637330965
 30
0.0
 11
9370.8625701833
 21
6834.9895628701
 31
0.0
  0
LINE
  5
D2
330
1F
100
AcDbEntity
  8
0
  6
Continuous
 62
     7
370
    25
100
AcDbLine
 10
9374.6125701833
 20
6652.0363375894
 30
0.0
 11
9374.6125701833
 21
6651.5999255816
 31
0.0
  0
LINE
  5
D3
330
1F
100
AcDbEntity
  8
0
  6
Continuous
 62
     7
370
    25
100
AcDbLine
 10
9376.1125701833
 20
6651.5999255817
 30
0.0
 11
9376.1125701833
 21
6652.0363375894
 31
0.0
  0
LINE
  5
D4
330
1F
100
AcDbEntity
  8
0
  6
Continuous
 62
     7
370
    25
100
AcDbLine
 10
9373.5911947888
 20
6651.6411675197
 30
0.0
 11
9373.5911947888
 21
6652.0363375894
 31
0.0
  0
LINE
  5
D5
330
1F
100
AcDbEntity
  8
0
  6
Continuous
 62
     7
370
    25
100
AcDbLine
 10
9377.1339455778
 20
6652.0363375894
 30
0.0
 11
9377.1339455778
 21
6651.6411675197
 31
0.0
  0
LINE
  5
D6
330
1F
100
AcDbEntity
  8
0
  6
Continuous
 62
     7
370
    25
100
AcDbLine
 10
9379.8625701833
 20
6652.0363375894
 30
0.0
 11
9379.8625701833
 21
6652.1105078159
 31
0.0
  0
LINE
  5
D7
330
1F
100
AcDbEntity
  8
0
  6
Continuous
 62
     7
370
    25
100
AcDbLine
 10
9370.8625701833
 20
6652.1105078159
 30
0.0
 11
9370.8625701833
 21
6652.0363375894
 31
0.0
  0
LINE
  5
D8
330
1F
100
AcDbEntity
  8
0
  6
Continuous
 62
     7
370
    25
100
AcDbLine
 10
9214.6125701833
 20
6834.9895628701
 30
0.0
 11
9214.6125701833
 21
6834.5531508623
 31
0.0
  0
LINE
  5
D9
330
1F
100
AcDbEntity
  8
0
  6
Continuous
 62
     7
370
    25
100
AcDbLine
 10
9216.1125701833
 20
6834.5531508623
 30
0.0
 11
9216.1125701833
 21
6834.9895628701
 31
0.0
  0
LINE
  5
DA
330
1F
100
AcDbEntity
  8
0
  6
Continuous
 62
     7
370
    25
100
AcDbLine
 10
9213.5911947888
 20
6834.5943928003
 30
0.0
 11
9213.5911947888
 21
6834.9895628701
 31
0.0
  0
LINE
  5
DB
330
1F
100
AcDbEntity
  8
0
  6
Continuous
 62
     7
370
    25
100
AcDbLine
 10
9217.1339455778
 20
6834.9895628701
 30
0.0
 11
9217.1339455778
 21
6834.5943928003
 31
0.0
  0
LINE
  5
DC
330
1F
100
AcDbEntity
  8
0
  6
Continuous
 62
     7
370
    25
100
AcDbLine
 10
9219.8625701833
 20
6834.9895628701
 30
0.0
 11
9219.8625701833
 21
6835.0637330965
 31
0.0
  0
LINE
  5
DD
330
1F
100
AcDbEntity
  8
0
  6
Continuous
 62
     7
370
    25
100
AcDbLine
 10
9210.8625701833
 20
6835.0637330965
 30
0.0
 11
9210.8625701833
 21
6834.9895628701
 31
0.0
  0
LINE
  5
DE
330
1F
100
AcDbEntity
  8
0
  6
Continuous
 62
     7
370
    25
100
AcDbLine
 10
9214.6125701833
 20
6652.0363375894
 30
0.0
 11
9214.6125701833
 21
6651.5999255816
 31
0.0
  0
LINE
  5
DF
330
1F
100
AcDbEntity
  8
0
  6
Continuous
 62
     7
370
    25
100
AcDbLine
 10
9216.1125701833
 20
6651.5999255816
 30
0.0
 11
9216.1125701833
 21
6652.0363375894
 31
0.0
  0
LINE
  5
E0
330
1F
100
AcDbEntity
  8
0
  6
Continuous
 62
     7
370
    25
100
AcDbLine
 10
9213.5911947888
 20
6651.6411675197
 30
0.0
 11
9213.5911947888
 21
6652.0363375894
 31
0.0
  0
LINE
  5
E1
330
1F
100
AcDbEntity
  8
0
  6
Continuous
 62
     7
370
    25
100
AcDbLine
 10
9217.1339455778
 20
6652.0363375894
 30
0.0
 11
9217.1339455778
 21
6651.6411675197
 31
0.0
  0
LINE
  5
E2
330
1F
100
AcDbEntity
  8
0
  6
Continuous
 62
     7
370
    25
100
AcDbLine
 10
9219.8625701833
 20
6652.0363375894
 30
0.0
 11
9219.8625701833
 21
6652.1105078159
 31
0.0
  0
LINE
  5
E3
330
1F
100
AcDbEntity
  8
0
  6
Continuous
 62
     7
370
    25
100
AcDbLine
 10
9210.8625701833
 20
6652.1105078159
 30
0.0
 11
9210.8625701833
 21
6652.0363375894
 31
0.0
  0
ARC
  5
E4
330
1F
100
AcDbEntity
  8
0
  6
Continuous
 62
     7
370
    25
100
AcDbCircle
 10
9723.8024958711
 20
6891.9847100539
 30
0.0
 40
5.000000000000028
100
AcDbArc
 50
344.1680711505
 51
90.0000060924
  0
LINE
  5
E5
330
1F
100
AcDbEntity
  8
0
  6
Continuous
 62
     7
370
    25
100
AcDbLine
 10
9621.3659595732
 20
6500.6328543386
 30
0.0
 11
9728.6117917649
 21
6890.6162693246
 31
0.0
  0
ARC
  5
E6
330
1F
100
AcDbEntity
  8
0
  6
Continuous
 62
     7
370
    25
100
AcDbCircle
 10
9616.5521027882
 20
6501.9847100539
 30
0.0
 40
5.000000000001095
100
AcDbArc
 50
269.9999923637
 51
344.3402462469
  0
CIRCLE
  5
E7
330
1F
100
AcDbEntity
  8
0
  6
Continuous
 62
     7
370
    25
100
AcDbCircle
 10
9375.3995112978
 20
6834.9982970326
 30
0.0
 40
4.463067431852433
  0
SPLINE
  5
E8
330
1F
100
AcDbEntity
  8
0
  6
Continuous
 62
     7
370
    25
100
AcDbSpline
210
0.0
220
0.0
230
1.0
 70
     8
 71
     3
 72
    16
 73
    12
 74
     0
 42
0.00000001
 43
0.00000001
 40
0.0
 40
0.0
 40
0.0
 40
0.0
 40
0.1348147858417826
 40
0.2700723340770233
 40
0.3961092720444737
 40
0.5091935624065098
 40
0.6146164132487005
 40
0.7203253099189982
 40
0.8329031370168216
 40
0.9561998018090018
 40
1.0
 40
1.0
 40
1.0
 40
1.0
 10
9373.835446141054
 20
6833.063695569622
 30
0.0
 10
9373.764230542321
 20
6833.051343977989
 30
0.0
 10
9373.621565456646
 20
6833.026600229288
 30
0.0
 10
9373.3995504578
 20
6833.085953092307
 30
0.0
 10
9373.213304101711
 20
6833.208597512484
 30
0.0
 10
9373.085928898714
 20
6833.372636678187
 30
0.0
 10
9373.021070183555
 20
6833.550867402711
 30
0.0
 10
9373.014092978596
 20
6833.731688997669
 30
0.0
 10
9373.065773623512
 20
6833.906186391281
 30
0.0
 10
9373.150711776758
 20
6834.02502465524
 30
0.0
 10
9373.217045343252
 20
6834.079012282167
 30
0.0
 10
9373.234433002764
 20
6834.093163767223
 30
0.0
  0
ARC
  5
E9
330
1F
100
AcDbEntity
  8
0
  6
Continuous
 62
     7
370
    25
100
AcDbCircle
 10
9367.0186702727
 20
6857.3269309835
 30
0.0
 40
25.20263926631988
100
AcDbArc
 50
285.6927513466
 51
286.2218271076
  0
SPLINE
  5
EA
330
1F
100
AcDbEntity
  8
0
  6
Continuous
 62
     7
370
    25
100
AcDbSpline
210
0.0
220
0.0
230
1.0
 70
     8
 71
     3
 72
    13
 73
     9
 74
     0
 42
0.00000001
 43
0.00000001
 40
0.0
 40
0.0
 40
0.0
 40
0.0
 40
0.1912350196657698
 40
0.3830645276018727
 40
0.5617575676958397
 40
0.7320257694395315
 40
0.9058232181829182
 40
0.9999999999999999
 40
0.9999999999999999
 40
0.9999999999999999
 40
0.9999999999999999
 10
9374.718659575105
 20
6832.751150237707
 30
0.0
 10
9374.704231088734
 20
6832.799417789093
 30
0.0
 10
9374.67532926246
 20
6832.896102940186
 30
0.0
 10
9374.569363552722
 20
6833.020889652589
 30
0.0
 10
9374.433053946921
 20
6833.107673896475
 30
0.0
 10
9374.282621407905
 20
6833.14994031604
 30
0.0
 10
9374.155136949612
 20
6833.151037758206
 30
0.0
 10
9374.08414958854
 20
6833.133751189126
 30
0.0
 10
9374.059201812028
 20
6833.127676002563
 30
0.0
  0
ARC
  5
EB
330
1F
100
AcDbEntity
  8
0
  6
Continuous
 62
     7
370
    25
100
AcDbCircle
 10
9484.3289800245
 20
6854.384227266
 30
0.0
 40
111.7247169194543
100
AcDbArc
 50
191.1646090692
 51
191.277659136
  0
SPLINE
  5
EC
330
1F
100
AcDbEntity
  8
0
  6
Continuous
 62
     7
370
    25
100
AcDbSpline
210
0.0
220
0.0
230
1.0
 70
     8
 71
     3
 72
    16
 73
    12
 74
     0
 42
0.00000001
 43
0.00000001
 40
0.0
 40
0.0
 40
0.0
 40
0.0
 40
0.134819925751002
 40
0.2700771320767857
 40
0.3961135838171383
 40
0.5091974703393023
 40
0.6146201940046
 40
0.7203292406259619
 40
0.8329074133101285
 40
0.9562045015597426
 40
1.0
 40
1.0
 40
1.0
 40
1.0
 10
9375.963583321583
 20
6832.534920815614
 30
0.0
 10
9375.943019059468
 20
6832.470164500846
 30
0.0
 10
9375.901823836255
 20
6832.340441837977
 30
0.0
 10
9375.74924563921
 20
6832.185918410823
 30
0.0
 10
9375.555182972877
 20
6832.091423644438
 30
0.0
 10
9375.349642208954
 20
6832.065382451439
 30
0.0
 10
9375.158907974901
 20
6832.097680628921
 30
0.0
 10
9374.99151583246
 20
6832.178944971672
 30
0.0
 10
9374.856012629618
 20
6832.305583660072
 30
0.0
 10
9374.785991829147
 20
6832.432936476891
 30
0.0
 10
9374.766631459472
 20
6832.513741549158
 30
0.0
 10
9374.761557045002
 20
6832.534920815614
 30
0.0
  0
ARC
  5
ED
330
1F
100
AcDbEntity
  8
0
  6
Continuous
 62
     7
370
    25
100
AcDbCircle
 10
9266.396157558
 20
6854.3842278184
 30
0.0
 40
111.7247197578235
100
AcDbArc
 50
348.7223408654
 51
348.8353909294
  0
SPLINE
  5
EE
330
1F
100
AcDbEntity
  8
0
  6
Continuous
 62
     7
370
    25
100
AcDbSpline
210
0.0
220
0.0
230
1.0
 70
     8
 71
     3
 72
    13
 73
     9
 74
     0
 42
0.00000001
 43
0.00000001
 40
0.0
 40
0.0
 40
0.0
 40
0.0
 40
0.1912350196657718
 40
0.3830645276018707
 40
0.561757567695829
 40
0.7320257694395584
 40
0.9058232181829383
 40
1.0
 40
1.0
 40
1.0
 40
1.0
 10
9376.665938554557
 20
6833.127676002563
 30
0.0
 10
9376.613979755164
 20
6833.138038892046
 30
0.0
 10
9376.509900633155
 20
6833.158796885908
 30
0.0
 10
9376.343730674153
 20
6833.12820429041
 30
0.0
 10
9376.19903122224
 20
6833.054542852539
 30
0.0
 10
9376.089457957518
 20
6832.948355664306
 30
0.0
 10
9376.029145395853
 20
6832.842228018626
 30
0.0
 10
9376.012374684988
 20
6832.774834866519
 30
0.0
 10
9376.00648079148
 20
6832.751150237707
 30
0.0
  0
ARC
  5
EF
330
1F
100
AcDbEntity
  8
0
  6
Continuous
 62
     7
370
    25
100
AcDbCircle
 10
9383.7064700937
 20
6857.3269309829
 30
0.0
 40
25.20263926571911
100
AcDbArc
 50
253.7781728924
 51
254.3072486534
  0
SPLINE
  5
F0
330
1F
100
AcDbEntity
  8
0
  6
Continuous
 62
     7
370
    25
100
AcDbSpline
210
0.0
220
0.0
230
1.0
 70
     8
 71
     3
 72
    16
 73
    12
 74
     0
 42
0.00000001
 43
0.00000001
 40
0.0
 40
0.0
 40
0.0
 40
0.0
 40
0.1347595790864299
 40
0.2700207988599215
 40
0.3960629591195705
 40
0.5091515875631567
 40
0.6145758051161256
 40
0.7202830918048987
 40
0.8328572074327918
 40
0.9561493240418483
 40
1.0
 40
1.0
 40
1.0
 40
1.0
 10
9377.49070736382
 20
6834.093163767223
 30
0.0
 10
9377.541340637501
 20
6834.04561168575
 30
0.0
 10
9377.642795666528
 20
6833.950330510835
 30
0.0
 10
9377.712259575586
 20
6833.748380050994
 30
0.0
 10
9377.704474878103
 20
6833.538614189331
 30
0.0
 10
9377.626331825459
 20
6833.350571060332
 30
0.0
 10
9377.500470948386
 20
6833.202077867074
 30
0.0
 10
9377.340066937564
 20
6833.096156418457
 30
0.0
 10
9377.15289083563
 20
6833.038529683258
 30
0.0
 10
9376.997902837868
 20
6833.037404962693
 30
0.0
 10
9376.912183171888
 20
6833.058231604821
 30
0.0
 10
9376.88969422553
 20
6833.063695569622
 30
0.0
  0
ARC
  5
F1
330
1F
100
AcDbEntity
  8
0
  6
Continuous
 62
     7
370
    25
100
AcDbCircle
 10
9394.9478376744
 20
6857.2496514331
 30
0.0
 40
28.99955723282841
100
AcDbArc
 50
232.5393957728
 51
232.9882205806
  0
SPLINE
  5
F2
330
1F
100
AcDbEntity
  8
0
  6
Continuous
 62
     7
370
    25
100
AcDbSpline
210
0.0
220
0.0
230
1.0
 70
     8
 71
     3
 72
    13
 73
     9
 74
     0
 42
0.00000001
 43
0.00000001
 40
0.0
 40
0.0
 40
0.0
 40
0.0
 40
0.1912350196657392
 40
0.3830645276018481
 40
0.5617575676958055
 40
0.7320257694395264
 40
0.9058232181829019
 40
1.0
 40
1.0
 40
1.0
 40
1.0
 10
9377.309849162746
 20
6834.983674291662
 30
0.0
 10
9377.272318849724
 20
6834.942942238626
 30
0.0
 10
9377.197141553985
 20
6834.861351509679
 30
0.0
 10
9377.136937304724
 20
6834.701507691914
 30
0.0
 10
9377.128547458611
 20
6834.540437979766
 30
0.0
 10
9377.169406732904
 20
6834.395017668123
 30
0.0
 10
9377.236578629532
 20
6834.292806446644
 30
0.0
 10
9377.29079527974
 20
6834.246793528028
 30
0.0
 10
9377.309849162746
 20
6834.23062276195
 30
0.0
  0
ARC
  5
F3
330
1F
100
AcDbEntity
  8
0
  6
Continuous
 62
     7
370
    25
100
AcDbCircle
 10
9352.3540856295
 20
6862.1854702871
 30
0.0
 40
36.9151437611302
100
AcDbArc
 50
312.5342265837
 51
312.9163442748
  0
SPLINE
  5
F4
330
1F
100
AcDbEntity
  8
0
  6
Continuous
 62
     7
370
    25
100
AcDbSpline
210
0.0
220
0.0
230
1.0
 70
     8
 71
     3
 72
    16
 73
    12
 74
     0
 42
0.00000001
 43
0.00000001
 40
0.0
 40
0.0
 40
0.0
 40
0.0
 40
0.1348147858417671
 40
0.2700723340770214
 40
0.3961092720444553
 40
0.5091935624065075
 40
0.6146164132486823
 40
0.7203253099189854
 40
0.8329031370167995
 40
0.956199801808994
 40
0.9999999999999999
 40
0.9999999999999999
 40
0.9999999999999999
 40
0.9999999999999999
 10
9376.88969422553
 20
6836.18018147284
 30
0.0
 10
9376.960909824262
 20
6836.202189500521
 30
0.0
 10
9377.10357490994
 20
6836.24627783525
 30
0.0
 10
9377.325589908785
 20
6836.210699104199
 30
0.0
 10
9377.511836264874
 20
6836.102814889668
 30
0.0
 10
9377.63921146787
 20
6835.942882123712
 30
0.0
 10
9377.704070183028
 20
6835.759566455675
 30
0.0
 10
9377.71104738799
 20
6835.566054610103
 30
0.0
 10
9377.659366743073
 20
6835.372064477193
 30
0.0
 10
9377.574428589825
 20
6835.233986254949
 30
0.0
 10
9377.508095023333
 20
6835.16800784063
 30
0.0
 10
9377.49070736382
 20
6835.150713275239
 30
0.0
  0
ARC
  5
F5
330
1F
100
AcDbEntity
  8
0
  6
Continuous
 62
     7
370
    25
100
AcDbCircle
 10
9365.7739050022
 20
6862.4499518803
 30
0.0
 40
28.52475429018449
100
AcDbArc
 50
292.4480104015
 51
292.9351630888
  0
SPLINE
  5
F6
330
1F
100
AcDbEntity
  8
0
  6
Continuous
 62
     7
370
    25
100
AcDbSpline
210
0.0
220
0.0
230
1.0
 70
     8
 71
     3
 72
    13
 73
     9
 74
     0
 42
0.00000001
 43
0.00000001
 40
0.0
 40
0.0
 40
0.0
 40
0.0
 40
0.1912350196657522
 40
0.3830645276018539
 40
0.5617575676958326
 40
0.7320257694395261
 40
0.9058232181829202
 40
1.0
 40
1.0
 40
1.0
 40
1.0
 10
9376.00648079148
 20
6836.463146815905
 30
0.0
 10
9376.02090927785
 20
6836.409224482252
 30
0.0
 10
9376.049811104123
 20
6836.301212187725
 30
0.0
 10
9376.155776813863
 20
6836.167496455597
 30
0.0
 10
9376.292086419664
 20
6836.079464150928
 30
0.0
 10
9376.44251895868
 20
6836.043264323673
 30
0.0
 10
9376.570003416973
 20
6836.052194614243
 30
0.0
 10
9376.640990778045
 20
6836.077668512144
 30
0.0
 10
9376.665938554557
 20
6836.086621051049
 30
0.0
  0
ARC
  5
F7
330
1F
100
AcDbEntity
  8
0
  6
Continuous
 62
     7
370
    25
100
AcDbCircle
 10
9535.6102173265
 20
6864.4430670592
 30
0.0
 40
162.0377383598469
100
AcDbArc
 50
189.8551743987
 51
189.9434050811
  0
SPLINE
  5
F8
330
1F
100
AcDbEntity
  8
0
  6
Continuous
 62
     7
370
    25
100
AcDbSpline
210
0.0
220
0.0
230
1.0
 70
     8
 71
     3
 72
    16
 73
    12
 74
     0
 42
0.00000001
 43
0.00000001
 40
0.0
 40
0.0
 40
0.0
 40
0.0
 40
0.1348199257509995
 40
0.2700771320767879
 40
0.3961135838171401
 40
0.5091974703393026
 40
0.614620194004605
 40
0.7203292406259698
 40
0.8329074133101383
 40
0.9562045015597187
 40
1.0
 40
1.0
 40
1.0
 40
1.0
 10
9374.761557045002
 20
6836.708956226847
 30
0.0
 10
9374.782121307115
 20
6836.783369346668
 30
0.0
 10
9374.82331653033
 20
6836.932436940929
 30
0.0
 10
9374.975894727375
 20
6837.110734517354
 30
0.0
 10
9375.169957393708
 20
6837.219989097988
 30
0.0
 10
9375.37549815763
 20
6837.250136320458
 30
0.0
 10
9375.566232391684
 20
6837.212752899822
 30
0.0
 10
9375.733624534125
 20
6837.118798047343
 30
0.0
 10
9375.869127736967
 20
6836.972666385294
 30
0.0
 10
9375.939148537438
 20
6836.826073792576
 30
0.0
 10
9375.958508907113
 20
6836.733278237092
 30
0.0
 10
9375.963583321583
 20
6836.708956226847
 30
0.0
  0
ARC
  5
F9
330
1F
100
AcDbEntity
  8
0
  6
Continuous
 62
     7
370
    25
100
AcDbCircle
 10
9215.1149184168
 20
6864.443067866
 30
0.0
 40
162.0377430529608
100
AcDbArc
 50
350.0565949201
 51
350.1448256
  0
SPLINE
  5
FA
330
1F
100
AcDbEntity
  8
0
  6
Continuous
 62
     7
370
    25
100
AcDbSpline
210
0.0
220
0.0
230
1.0
 70
     8
 71
     3
 72
    13
 73
     9
 74
     0
 42
0.00000001
 43
0.00000001
 40
0.0
 40
0.0
 40
0.0
 40
0.0
 40
0.1912350196657971
 40
0.3830645276019015
 40
0.5617575676958566
 40
0.732025769439546
 40
0.9058232181829197
 40
0.9999999999999999
 40
0.9999999999999999
 40
0.9999999999999999
 40
0.9999999999999999
 10
9374.059201812028
 20
6836.086621051049
 30
0.0
 10
9374.111160611421
 20
6836.070603379299
 30
0.0
 10
9374.21523973343
 20
6836.038518242003
 30
0.0
 10
9374.381409692432
 20
6836.060181817775
 30
0.0
 10
9374.526109144344
 20
6836.132595194864
 30
0.0
 10
9374.635682409067
 20
6836.244848975406
 30
0.0
 10
9374.695994970732
 20
6836.361004353822
 30
0.0
 10
9374.712765681597
 20
6836.436584834752
 30
0.0
 10
9374.718659575105
 20
6836.463146815905
 30
0.0
  0
ARC
  5
FB
330
1F
100
AcDbEntity
  8
0
  6
Continuous
 62
     7
370
    25
100
AcDbCircle
 10
9384.9512353644
 20
6862.4499518803
 30
0.0
 40
28.52475429020658
100
AcDbArc
 50
247.0648369112
 51
247.5519895985
  0
SPLINE
  5
FC
330
1F
100
AcDbEntity
  8
0
  6
Continuous
 62
     7
370
    25
100
AcDbSpline
210
0.0
220
0.0
230
1.0
 70
     8
 71
     3
 72
    16
 73
    12
 74
     0
 42
0.00000001
 43
0.00000001
 40
0.0
 40
0.0
 40
0.0
 40
0.0
 40
0.1347595790864307
 40
0.2700207988599337
 40
0.3960629591195731
 40
0.5091515875631487
 40
0.6145758051161218
 40
0.720283091804905
 40
0.8328572074327958
 40
0.9561493240418445
 40
1.0
 40
1.0
 40
1.0
 40
1.0
 10
9373.234433002764
 20
6835.150713275239
 30
0.0
 10
9373.183799729084
 20
6835.207917829372
 30
0.0
 10
9373.082344700055
 20
6835.32253988081
 30
0.0
 10
9373.012880790999
 20
6835.548264285995
 30
0.0
 10
9373.020665488482
 20
6835.772794557092
 30
0.0
 10
9373.098808541126
 20
6835.964948063018
 30
0.0
 10
9373.2246694182
 20
6836.108359531278
 30
0.0
 10
9373.38507342902
 20
6836.201593512437
 30
0.0
 10
9373.572249530953
 20
6836.23973002549
 30
0.0
 10
9373.727237528718
 20
6836.221612829165
 30
0.0
 10
9373.812957194696
 20
6836.188792132654
 30
0.0
 10
9373.835446141054
 20
6836.18018147284
 30
0.0
  0
ARC
  5
FD
330
1F
100
AcDbEntity
  8
0
  6
Continuous
 62
     7
370
    25
100
AcDbCircle
 10
9398.3710547644
 20
6862.1854703167
 30
0.0
 40
36.91514380139397
100
AcDbArc
 50
227.0836557254
 51
227.4657734161
  0
SPLINE
  5
FE
330
1F
100
AcDbEntity
  8
0
  6
Continuous
 62
     7
370
    25
100
AcDbSpline
210
0.0
220
0.0
230
1.0
 70
     8
 71
     3
 72
    13
 73
     9
 74
     0
 42
0.00000001
 43
0.00000001
 40
0.0
 40
0.0
 40
0.0
 40
0.0
 40
0.1912350196657528
 40
0.3830645276018758
 40
0.5617575676958099
 40
0.7320257694395155
 40
0.9058232181829159
 40
1.0
 40
1.0
 40
1.0
 40
1.0
 10
9373.415291203839
 20
6834.23062276195
 30
0.0
 10
9373.452821516861
 20
6834.265700032721
 30
0.0
 10
9373.5279988126
 20
6834.335963618232
 30
0.0
 10
9373.588203061861
 20
6834.486878416272
 30
0.0
 10
9373.596592907972
 20
6834.646700067637
 30
0.0
 10
9373.555733633679
 20
6834.79818697159
 30
0.0
 10
9373.488561737051
 20
6834.910425925805
 30
0.0
 10
9373.434345086844
 20
6834.964626173241
 30
0.0
 10
9373.415291203839
 20
6834.983674291662
 30
0.0
  0
ARC
  5
FF
330
1F
100
AcDbEntity
  8
0
  6
Continuous
 62
     7
370
    25
100
AcDbCircle
 10
9355.777302692
 20
6857.2496514333
 30
0.0
 40
28.99955723307507
100
AcDbArc
 50
307.0117794194
 51
307.4606042272
  0
CIRCLE
  5
100
330
1F
100
AcDbEntity
  8
0
  6
Continuous
 62
     7
370
    25
100
AcDbCircle
 10
9375.3572783386
 20
6834.5552796411
 30
0.0
 40
0.7447111979144848
  0
ARC
  5
101
330
1F
100
AcDbEntity
  8
0
  6
Continuous
 62
     7
370
    25
100
AcDbCircle
 10
9375.3625701833
 20
6834.9828480163
 30
0.0
 40
0.7500300589048979
100
AcDbArc
 50
0.512963334
 51
179.487036666
  0
LWPOLYLINE
  5
102
330
1F
100
AcDbEntity
  8
0
  6
Continuous
 62
     7
370
    25
100
AcDbPolyline
 90
        3
 70
   128
 43
0.0
 10
9373.2344330028
 20
6835.5183376241
 10
9373.0997094303
 20
6835.6791302706
 10
9373.041053013
 20
6835.8192624588
  0
LINE
  5
103
330
1F
100
AcDbEntity
  8
0
  6
Continuous
 62
     7
370
    25
100
AcDbLine
 10
9373.2344330028
 20
6835.1507132752
 30
0.0
 11
9373.2344330028
 21
6835.5183376241
 31
0.0
  0
LINE
  5
104
330
1F
100
AcDbEntity
  8
0
  6
Continuous
 62
     7
370
    25
100
AcDbLine
 10
9377.4907073638
 20
6835.1507132752
 30
0.0
 11
9377.4907073638
 21
6835.5183376241
 31
0.0
  0
LWPOLYLINE
  5
105
330
1F
100
AcDbEntity
  8
0
  6
Continuous
 62
     7
370
    25
100
AcDbPolyline
 90
        3
 70
   128
 43
0.0
 10
9377.6836967737
 20
6835.8178551047
 10
9377.6254309363
 20
6835.6791302706
 10
9377.4907073638
 20
6835.5183376241
  0
LINE
  5
106
330
1F
100
AcDbEntity
  8
0
  6
Continuous
 62
     7
370
    25
100
AcDbLine
 10
9373.4152912038
 20
6834.9836742917
 30
0.0
 11
9373.4152912038
 21
6835.3660886349
 31
0.0
  0
ARC
  5
107
330
1F
100
AcDbEntity
  8
0
  6
Continuous
 62
     7
370
    25
100
AcDbCircle
 10
9373.0989150679
 20
6834.9889336799
 30
0.0
 40
0.4922801229686746
100
AcDbArc
 50
0.073230563
 51
50.0084208486
  0
ARC
  5
108
330
1F
100
AcDbEntity
  8
0
  6
Continuous
 62
     7
370
    25
100
AcDbCircle
 10
9377.6262252987
 20
6834.9889336799
 30
0.0
 40
0.4922801229636299
100
AcDbArc
 50
129.991579151
 51
179.9267694371
  0
LINE
  5
109
330
1F
100
AcDbEntity
  8
0
  6
Continuous
 62
     7
370
    25
100
AcDbLine
 10
9377.3098491627
 20
6835.3660886349
 30
0.0
 11
9377.3098491627
 21
6834.9836742917
 31
0.0
  0
LINE
  5
10A
330
1F
100
AcDbEntity
  8
0
  6
Continuous
 62
     7
370
    25
100
AcDbLine
 10
9373.4152912038
 20
6835.3660886349
 30
0.0
 11
9373.2344330028
 21
6835.5183376241
 31
0.0
  0
LINE
  5
10B
330
1F
100
AcDbEntity
  8
0
  6
Continuous
 62
     7
370
    25
100
AcDbLine
 10
9377.4907073638
 20
6835.5183376241
 30
0.0
 11
9377.3098491627
 21
6835.3660886349
 31
0.0
  0
LINE
  5
10C
330
1F
100
AcDbEntity
  8
0
  6
Continuous
 62
     7
370
    25
100
AcDbLine
 10
9376.0064807915
 20
6832.7511502377
 30
0.0
 11
9376.0064807915
 21
6833.133564581
 31
0.0
  0
ARC
  5
10D
330
1F
100
AcDbEntity
  8
0
  6
Continuous
 62
     7
370
    25
100
AcDbCircle
 10
9376.497765722
 20
6833.0388736775
 30
0.0
 40
0.5003271431224151
100
AcDbArc
 50
70.358991683
 51
169.0905161759
  0
LINE
  5
10E
330
1F
100
AcDbEntity
  8
0
  6
Continuous
 62
     7
370
    25
100
AcDbLine
 10
9376.6659385546
 20
6833.5100903458
 30
0.0
 11
9376.6659385546
 21
6833.1276760026
 31
0.0
  0
LINE
  5
10F
330
1F
100
AcDbEntity
  8
0
  6
Continuous
 62
     7
370
    25
100
AcDbLine
 10
9374.059201812
 20
6833.1276760026
 30
0.0
 11
9374.059201812
 21
6833.5100903458
 31
0.0
  0
ARC
  5
110
330
1F
100
AcDbEntity
  8
0
  6
Continuous
 62
     7
370
    25
100
AcDbCircle
 10
9374.2273746446
 20
6833.0388736775
 30
0.0
 40
0.5003271431235168
100
AcDbArc
 50
10.9094838242
 51
109.6410083167
  0
LINE
  5
111
330
1F
100
AcDbEntity
  8
0
  6
Continuous
 62
     7
370
    25
100
AcDbLine
 10
9374.7186595751
 20
6833.133564581
 30
0.0
 11
9374.7186595751
 21
6832.7511502377
 31
0.0
  0
LINE
  5
112
330
1F
100
AcDbEntity
  8
0
  6
Continuous
 62
     7
370
    25
100
AcDbLine
 10
9376.8896942255
 20
6833.0636955696
 30
0.0
 11
9376.8896942255
 21
6833.4313199184
 31
0.0
  0
ARC
  5
113
330
1F
100
AcDbEntity
  8
0
  6
Continuous
 62
     7
370
    25
100
AcDbCircle
 10
9377.0950580691
 20
6834.0082250866
 30
0.0
 40
0.6123674398081735
100
AcDbArc
 50
250.4055394671
 51
341.5910971723
  0
ARC
  5
114
330
1F
100
AcDbEntity
  8
0
  6
Continuous
 62
     7
370
    25
100
AcDbCircle
 10
9373.629796288
 20
6834.0076347081
 30
0.0
 40
0.6119073449816735
100
AcDbArc
 50
198.3165637959
 51
289.6382288045
  0
LINE
  5
115
330
1F
100
AcDbEntity
  8
0
  6
Continuous
 62
     7
370
    25
100
AcDbLine
 10
9373.8354461411
 20
6833.0636955696
 30
0.0
 11
9373.8354461411
 21
6833.4313199184
 31
0.0
  0
LINE
  5
116
330
1F
100
AcDbEntity
  8
0
  6
Continuous
 62
     7
370
    25
100
AcDbLine
 10
9374.059201812
 20
6833.5100903458
 30
0.0
 11
9373.8354461411
 21
6833.4313199184
 31
0.0
  0
LINE
  5
117
330
1F
100
AcDbEntity
  8
0
  6
Continuous
 62
     7
370
    25
100
AcDbLine
 10
9376.8896942255
 20
6833.4313199184
 30
0.0
 11
9376.6659385546
 21
6833.5100903458
 31
0.0
  0
LINE
  5
118
330
1F
100
AcDbEntity
  8
0
  6
Continuous
 62
     7
370
    25
100
AcDbLine
 10
9375.9635833216
 20
6832.5349208156
 30
0.0
 11
9375.9635833216
 21
6832.9025451644
 31
0.0
  0
LINE
  5
119
330
1F
100
AcDbEntity
  8
0
  6
Continuous
 62
     7
370
    25
100
AcDbLine
 10
9376.0064807915
 20
6833.133564581
 30
0.0
 11
9375.9635833216
 21
6832.9025451644
 31
0.0
  0
LINE
  5
11A
330
1F
100
AcDbEntity
  8
0
  6
Continuous
 62
     7
370
    25
100
AcDbLine
 10
9374.761557045
 20
6832.5349208156
 30
0.0
 11
9374.761557045
 21
6832.9025451644
 31
0.0
  0
LINE
  5
11B
330
1F
100
AcDbEntity
  8
0
  6
Continuous
 62
     7
370
    25
100
AcDbLine
 10
9374.761557045
 20
6832.9025451644
 30
0.0
 11
9374.7186595751
 21
6833.133564581
 31
0.0
  0
ARC
  5
11C
330
1F
100
AcDbEntity
  8
0
  6
Continuous
 62
     7
370
    25
100
AcDbCircle
 10
9375.3625701833
 20
6833.0186663814
 30
0.0
 40
0.6121281968809023
100
AcDbArc
 50
190.9353245366
 51
349.0646754635
  0
ARC
  5
11D
330
1F
100
AcDbEntity
  8
0
  6
Continuous
 62
     7
370
    25
100
AcDbCircle
 10
9375.3625701833
 20
6835.0255801054
 30
0.0
 40
4.500161736063713
100
AcDbArc
 50
0.4857673311
 51
179.5142326689
  0
CIRCLE
  5
11E
330
1F
100
AcDbEntity
  8
0
  6
Continuous
 62
     7
370
    25
100
AcDbCircle
 10
9375.3995112978
 20
6652.045071752
 30
0.0
 40
4.463067431852433
  0
SPLINE
  5
11F
330
1F
100
AcDbEntity
  8
0
  6
Continuous
 62
     7
370
    25
100
AcDbSpline
210
0.0
220
0.0
230
1.0
 70
     8
 71
     3
 72
    16
 73
    12
 74
     0
 42
0.00000001
 43
0.00000001
 40
0.0
 40
0.0
 40
0.0
 40
0.0
 40
0.1348147858417826
 40
0.2700723340770221
 40
0.3961092720444712
 40
0.5091935624065187
 40
0.6146164132486797
 40
0.7203253099189764
 40
0.832903137016812
 40
0.9561998018090021
 40
1.0
 40
1.0
 40
1.0
 40
1.0
 10
9373.835446141054
 20
6650.110470288987
 30
0.0
 10
9373.764230542321
 20
6650.098118697354
 30
0.0
 10
9373.621565456646
 20
6650.073374948654
 30
0.0
 10
9373.3995504578
 20
6650.132727811672
 30
0.0
 10
9373.213304101711
 20
6650.255372231849
 30
0.0
 10
9373.085928898714
 20
6650.419411397551
 30
0.0
 10
9373.021070183555
 20
6650.597642122076
 30
0.0
 10
9373.014092978596
 20
6650.778463717034
 30
0.0
 10
9373.065773623512
 20
6650.952961110646
 30
0.0
 10
9373.150711776758
 20
6651.071799374604
 30
0.0
 10
9373.217045343252
 20
6651.125787001532
 30
0.0
 10
9373.234433002764
 20
6651.139938486589
 30
0.0
  0
ARC
  5
120
330
1F
100
AcDbEntity
  8
0
  6
Continuous
 62
     7
370
    25
100
AcDbCircle
 10
9367.0186702752
 20
6674.3737056943
 30
0.0
 40
25.20263925744655
100
AcDbArc
 50
285.6927513465
 51
286.2218271077
  0
SPLINE
  5
121
330
1F
100
AcDbEntity
  8
0
  6
Continuous
 62
     7
370
    25
100
AcDbSpline
210
0.0
220
0.0
230
1.0
 70
     8
 71
     3
 72
    13
 73
     9
 74
     0
 42
0.00000001
 43
0.00000001
 40
0.0
 40
0.0
 40
0.0
 40
0.0
 40
0.1912350196657971
 40
0.3830645276018778
 40
0.5617575676958291
 40
0.7320257694395302
 40
0.9058232181829179
 40
1.0
 40
1.0
 40
1.0
 40
1.0
 10
9374.718659575105
 20
6649.797924957073
 30
0.0
 10
9374.704231088734
 20
6649.846192508459
 30
0.0
 10
9374.67532926246
 20
6649.942877659551
 30
0.0
 10
9374.569363552722
 20
6650.067664371953
 30
0.0
 10
9374.433053946921
 20
6650.15444861584
 30
0.0
 10
9374.282621407905
 20
6650.196715035406
 30
0.0
 10
9374.155136949612
 20
6650.197812477571
 30
0.0
 10
9374.08414958854
 20
6650.18052590849
 30
0.0
 10
9374.059201812028
 20
6650.174450721928
 30
0.0
  0
ARC
  5
122
330
1F
100
AcDbEntity
  8
0
  6
Continuous
 62
     7
370
    25
100
AcDbCircle
 10
9484.3289800245
 20
6671.4310019854
 30
0.0
 40
111.7247169194545
100
AcDbArc
 50
191.1646090692
 51
191.277659136
  0
SPLINE
  5
123
330
1F
100
AcDbEntity
  8
0
  6
Continuous
 62
     7
370
    25
100
AcDbSpline
210
0.0
220
0.0
230
1.0
 70
     8
 71
     3
 72
    16
 73
    12
 74
     0
 42
0.00000001
 43
0.00000001
 40
0.0
 40
0.0
 40
0.0
 40
0.0
 40
0.1348199257509899
 40
0.2700771320767942
 40
0.3961135838171407
 40
0.509197470339305
 40
0.6146201940046053
 40
0.7203292406259612
 40
0.832907413310128
 40
0.9562045015597425
 40
0.9999999999999999
 40
0.9999999999999999
 40
0.9999999999999999
 40
0.9999999999999999
 10
9375.963583321583
 20
6649.581695534979
 30
0.0
 10
9375.943019059468
 20
6649.516939220212
 30
0.0
 10
9375.901823836255
 20
6649.387216557342
 30
0.0
 10
9375.74924563921
 20
6649.232693130189
 30
0.0
 10
9375.555182972877
 20
6649.138198363803
 30
0.0
 10
9375.349642208954
 20
6649.112157170804
 30
0.0
 10
9375.158907974901
 20
6649.144455348287
 30
0.0
 10
9374.99151583246
 20
6649.225719691037
 30
0.0
 10
9374.856012629616
 20
6649.352358379438
 30
0.0
 10
9374.785991829147
 20
6649.479711196256
 30
0.0
 10
9374.766631459472
 20
6649.560516268522
 30
0.0
 10
9374.761557045002
 20
6649.581695534979
 30
0.0
  0
ARC
  5
124
330
1F
100
AcDbEntity
  8
0
  6
Continuous
 62
     7
370
    25
100
AcDbCircle
 10
9266.3961559464
 20
6671.4310028574
 30
0.0
 40
111.7247214008044
100
AcDbArc
 50
348.7223408662
 51
348.8353909286
  0
SPLINE
  5
125
330
1F
100
AcDbEntity
  8
0
  6
Continuous
 62
     7
370
    25
100
AcDbSpline
210
0.0
220
0.0
230
1.0
 70
     8
 71
     3
 72
    13
 73
     9
 74
     0
 42
0.00000001
 43
0.00000001
 40
0.0
 40
0.0
 40
0.0
 40
0.0
 40
0.1912350196657673
 40
0.3830645276018615
 40
0.5617575676958299
 40
0.7320257694395129
 40
0.9058232181829139
 40
1.0
 40
1.0
 40
1.0
 40
1.0
 10
9376.665938554557
 20
6650.174450721928
 30
0.0
 10
9376.613979755164
 20
6650.184813611411
 30
0.0
 10
9376.509900633155
 20
6650.205571605274
 30
0.0
 10
9376.343730674153
 20
6650.174979009776
 30
0.0
 10
9376.19903122224
 20
6650.101317571904
 30
0.0
 10
9376.089457957518
 20
6649.995130383671
 30
0.0
 10
9376.029145395853
 20
6649.889002737991
 30
0.0
 10
9376.012374684988
 20
6649.821609585884
 30
0.0
 10
9376.00648079148
 20
6649.797924957073
 30
0.0
  0
ARC
  5
126
330
1F
100
AcDbEntity
  8
0
  6
Continuous
 62
     7
370
    25
100
AcDbCircle
 10
9383.7064700856
 20
6674.373705674
 30
0.0
 40
25.20263923629409
100
AcDbArc
 50
253.7781728921
 51
254.3072486537
  0
SPLINE
  5
127
330
1F
100
AcDbEntity
  8
0
  6
Continuous
 62
     7
370
    25
100
AcDbSpline
210
0.0
220
0.0
230
1.0
 70
     8
 71
     3
 72
    16
 73
    12
 74
     0
 42
0.00000001
 43
0.00000001
 40
0.0
 40
0.0
 40
0.0
 40
0.0
 40
0.1347595790864312
 40
0.2700207988599373
 40
0.3960629591195728
 40
0.5091515875631601
 40
0.6145758051161422
 40
0.7202830918048989
 40
0.8328572074327931
 40
0.9561493240418508
 40
0.9999999999999999
 40
0.9999999999999999
 40
0.9999999999999999
 40
0.9999999999999999
 10
9377.49070736382
 20
6651.139938486589
 30
0.0
 10
9377.541340637501
 20
6651.092386405116
 30
0.0
 10
9377.642795666528
 20
6650.997105230199
 30
0.0
 10
9377.712259575586
 20
6650.795154770359
 30
0.0
 10
9377.704474878103
 20
6650.585388908696
 30
0.0
 10
9377.626331825457
 20
6650.397345779698
 30
0.0
 10
9377.500470948386
 20
6650.248852586438
 30
0.0
 10
9377.340066937564
 20
6650.142931137822
 30
0.0
 10
9377.15289083563
 20
6650.085304402623
 30
0.0
 10
9376.997902837866
 20
6650.084179682058
 30
0.0
 10
9376.912183171888
 20
6650.105006324186
 30
0.0
 10
9376.88969422553
 20
6650.110470288987
 30
0.0
  0
ARC
  5
128
330
1F
100
AcDbEntity
  8
0
  6
Continuous
 62
     7
370
    25
100
AcDbCircle
 10
9394.9478376199
 20
6674.2964260808
 30
0.0
 40
28.99955714280524
100
AcDbArc
 50
232.5393957723
 51
232.9882205815
  0
SPLINE
  5
129
330
1F
100
AcDbEntity
  8
0
  6
Continuous
 62
     7
370
    25
100
AcDbSpline
210
0.0
220
0.0
230
1.0
 70
     8
 71
     3
 72
    13
 73
     9
 74
     0
 42
0.00000001
 43
0.00000001
 40
0.0
 40
0.0
 40
0.0
 40
0.0
 40
0.1912350196657831
 40
0.3830645276018588
 40
0.5617575676958436
 40
0.7320257694395318
 40
0.9058232181829037
 40
1.0
 40
1.0
 40
1.0
 40
1.0
 10
9377.309849162746
 20
6652.030449011027
 30
0.0
 10
9377.272318849724
 20
6651.98971695799
 30
0.0
 10
9377.197141553985
 20
6651.908126229044
 30
0.0
 10
9377.136937304722
 20
6651.748282411279
 30
0.0
 10
9377.128547458611
 20
6651.587212699132
 30
0.0
 10
9377.169406732904
 20
6651.441792387487
 30
0.0
 10
9377.236578629532
 20
6651.339581166008
 30
0.0
 10
9377.29079527974
 20
6651.293568247393
 30
0.0
 10
9377.309849162746
 20
6651.277397481315
 30
0.0
  0
ARC
  5
12A
330
1F
100
AcDbEntity
  8
0
  6
Continuous
 62
     7
370
    25
100
AcDbCircle
 10
9352.3540855798
 20
6679.2322450604
 30
0.0
 40
36.91514383445103
100
AcDbArc
 50
312.5342265839
 51
312.9163442743
  0
SPLINE
  5
12B
330
1F
100
AcDbEntity
  8
0
  6
Continuous
 62
     7
370
    25
100
AcDbSpline
210
0.0
220
0.0
230
1.0
 70
     8
 71
     3
 72
    16
 73
    12
 74
     0
 42
0.00000001
 43
0.00000001
 40
0.0
 40
0.0
 40
0.0
 40
0.0
 40
0.1348147858417668
 40
0.2700723340770186
 40
0.3961092720444676
 40
0.5091935624065073
 40
0.614616413248682
 40
0.720325309918969
 40
0.832903137016798
 40
0.956199801809005
 40
1.0
 40
1.0
 40
1.0
 40
1.0
 10
9376.88969422553
 20
6653.226956192205
 30
0.0
 10
9376.960909824262
 20
6653.248964219887
 30
0.0
 10
9377.10357490994
 20
6653.293052554614
 30
0.0
 10
9377.325589908785
 20
6653.257473823563
 30
0.0
 10
9377.511836264874
 20
6653.149589609032
 30
0.0
 10
9377.63921146787
 20
6652.989656843076
 30
0.0
 10
9377.704070183028
 20
6652.806341175039
 30
0.0
 10
9377.71104738799
 20
6652.612829329468
 30
0.0
 10
9377.659366743072
 20
6652.418839196557
 30
0.0
 10
9377.574428589825
 20
6652.280760974314
 30
0.0
 10
9377.508095023333
 20
6652.214782559994
 30
0.0
 10
9377.49070736382
 20
6652.197487994603
 30
0.0
  0
ARC
  5
12C
330
1F
100
AcDbEntity
  8
0
  6
Continuous
 62
     7
370
    25
100
AcDbCircle
 10
9365.7739049889
 20
6679.4967266315
 30
0.0
 40
28.52475432471057
100
AcDbArc
 50
292.4480104018
 51
292.9351630885
  0
SPLINE
  5
12D
330
1F
100
AcDbEntity
  8
0
  6
Continuous
 62
     7
370
    25
100
AcDbSpline
210
0.0
220
0.0
230
1.0
 70
     8
 71
     3
 72
    13
 73
     9
 74
     0
 42
0.00000001
 43
0.00000001
 40
0.0
 40
0.0
 40
0.0
 40
0.0
 40
0.1912350196657811
 40
0.3830645276018578
 40
0.5617575676958192
 40
0.7320257694395197
 40
0.9058232181829113
 40
1.0
 40
1.0
 40
1.0
 40
1.0
 10
9376.00648079148
 20
6653.50992153527
 30
0.0
 10
9376.02090927785
 20
6653.455999201617
 30
0.0
 10
9376.049811104123
 20
6653.347986907092
 30
0.0
 10
9376.155776813863
 20
6653.214271174962
 30
0.0
 10
9376.292086419664
 20
6653.126238870293
 30
0.0
 10
9376.44251895868
 20
6653.090039043038
 30
0.0
 10
9376.570003416971
 20
6653.098969333607
 30
0.0
 10
9376.640990778045
 20
6653.12444323151
 30
0.0
 10
9376.665938554557
 20
6653.133395770415
 30
0.0
  0
ARC
  5
12E
330
1F
100
AcDbEntity
  8
0
  6
Continuous
 62
     7
370
    25
100
AcDbCircle
 10
9535.6102138926
 20
6681.4898411792
 30
0.0
 40
162.0377348739732
100
AcDbArc
 50
189.8551743977
 51
189.943405082
  0
SPLINE
  5
12F
330
1F
100
AcDbEntity
  8
0
  6
Continuous
 62
     7
370
    25
100
AcDbSpline
210
0.0
220
0.0
230
1.0
 70
     8
 71
     3
 72
    16
 73
    12
 74
     0
 42
0.00000001
 43
0.00000001
 40
0.0
 40
0.0
 40
0.0
 40
0.0
 40
0.1348199257509894
 40
0.2700771320767937
 40
0.3961135838171423
 40
0.5091974703393062
 40
0.6146201940046089
 40
0.7203292406259769
 40
0.832907413310149
 40
0.9562045015597469
 40
1.0
 40
1.0
 40
1.0
 40
1.0
 10
9374.761557045002
 20
6653.755730946213
 30
0.0
 10
9374.782121307115
 20
6653.830144066033
 30
0.0
 10
9374.82331653033
 20
6653.979211660294
 30
0.0
 10
9374.975894727375
 20
6654.15750923672
 30
0.0
 10
9375.169957393708
 20
6654.266763817353
 30
0.0
 10
9375.37549815763
 20
6654.296911039823
 30
0.0
 10
9375.566232391684
 20
6654.259527619187
 30
0.0
 10
9375.733624534125
 20
6654.165572766708
 30
0.0
 10
9375.869127736967
 20
6654.01944110466
 30
0.0
 10
9375.939148537438
 20
6653.872848511941
 30
0.0
 10
9375.958508907113
 20
6653.780052956457
 30
0.0
 10
9375.963583321583
 20
6653.755730946213
 30
0.0
  0
ARC
  5
130
330
1F
100
AcDbEntity
  8
0
  6
Continuous
 62
     7
370
    25
100
AcDbCircle
 10
9215.1149191948
 20
6681.4898424495
 30
0.0
 40
162.037742263198
100
AcDbArc
 50
350.05659492
 51
350.1448256003
  0
SPLINE
  5
131
330
1F
100
AcDbEntity
  8
0
  6
Continuous
 62
     7
370
    25
100
AcDbSpline
210
0.0
220
0.0
230
1.0
 70
     8
 71
     3
 72
    13
 73
     9
 74
     0
 42
0.00000001
 43
0.00000001
 40
0.0
 40
0.0
 40
0.0
 40
0.0
 40
0.1912350196657985
 40
0.3830645276018906
 40
0.5617575676958344
 40
0.7320257694395353
 40
0.9058232181829257
 40
0.9999999999999999
 40
0.9999999999999999
 40
0.9999999999999999
 40
0.9999999999999999
 10
9374.059201812028
 20
6653.133395770415
 30
0.0
 10
9374.111160611421
 20
6653.117378098666
 30
0.0
 10
9374.21523973343
 20
6653.085292961368
 30
0.0
 10
9374.381409692432
 20
6653.10695653714
 30
0.0
 10
9374.526109144344
 20
6653.17936991423
 30
0.0
 10
9374.635682409067
 20
6653.29162369477
 30
0.0
 10
9374.695994970732
 20
6653.407779073188
 30
0.0
 10
9374.712765681597
 20
6653.483359554116
 30
0.0
 10
9374.718659575105
 20
6653.50992153527
 30
0.0
  0
ARC
  5
132
330
1F
100
AcDbEntity
  8
0
  6
Continuous
 62
     7
370
    25
100
AcDbCircle
 10
9384.9512353644
 20
6679.4967265996
 30
0.0
 40
28.52475429020658
100
AcDbArc
 50
247.0648369112
 51
247.5519895985
  0
SPLINE
  5
133
330
1F
100
AcDbEntity
  8
0
  6
Continuous
 62
     7
370
    25
100
AcDbSpline
210
0.0
220
0.0
230
1.0
 70
     8
 71
     3
 72
    16
 73
    12
 74
     0
 42
0.00000001
 43
0.00000001
 40
0.0
 40
0.0
 40
0.0
 40
0.0
 40
0.1347595790864287
 40
0.2700207988599297
 40
0.3960629591195673
 40
0.5091515875631557
 40
0.6145758051161272
 40
0.7202830918049014
 40
0.8328572074327936
 40
0.9561493240418403
 40
1.0
 40
1.0
 40
1.0
 40
1.0
 10
9373.234433002764
 20
6652.197487994603
 30
0.0
 10
9373.183799729084
 20
6652.254692548738
 30
0.0
 10
9373.082344700055
 20
6652.369314600175
 30
0.0
 10
9373.012880790999
 20
6652.595039005359
 30
0.0
 10
9373.020665488482
 20
6652.819569276458
 30
0.0
 10
9373.098808541126
 20
6653.011722782384
 30
0.0
 10
9373.2246694182
 20
6653.155134250643
 30
0.0
 10
9373.38507342902
 20
6653.248368231802
 30
0.0
 10
9373.572249530953
 20
6653.286504744855
 30
0.0
 10
9373.727237528718
 20
6653.26838754853
 30
0.0
 10
9373.812957194696
 20
6653.23556685202
 30
0.0
 10
9373.835446141054
 20
6653.226956192205
 30
0.0
  0
ARC
  5
134
330
1F
100
AcDbEntity
  8
0
  6
Continuous
 62
     7
370
    25
100
AcDbCircle
 10
9398.3710547869
 20
6679.2322450606
 30
0.0
 40
36.91514383471819
100
AcDbArc
 50
227.0836557258
 51
227.4657734161
  0
SPLINE
  5
135
330
1F
100
AcDbEntity
  8
0
  6
Continuous
 62
     7
370
    25
100
AcDbSpline
210
0.0
220
0.0
230
1.0
 70
     8
 71
     3
 72
    13
 73
     9
 74
     0
 42
0.00000001
 43
0.00000001
 40
0.0
 40
0.0
 40
0.0
 40
0.0
 40
0.191235019665792
 40
0.3830645276018848
 40
0.5617575676958472
 40
0.7320257694395503
 40
0.905823218182895
 40
1.0
 40
1.0
 40
1.0
 40
1.0
 10
9373.415291203839
 20
6651.277397481315
 30
0.0
 10
9373.452821516861
 20
6651.312474752085
 30
0.0
 10
9373.527998812599
 20
6651.382738337598
 30
0.0
 10
9373.588203061861
 20
6651.533653135636
 30
0.0
 10
9373.596592907972
 20
6651.693474787003
 30
0.0
 10
9373.555733633679
 20
6651.844961690955
 30
0.0
 10
9373.488561737051
 20
6651.957200645169
 30
0.0
 10
9373.434345086844
 20
6652.011400892607
 30
0.0
 10
9373.415291203839
 20
6652.030449011027
 30
0.0
  0
ARC
  5
136
330
1F
100
AcDbEntity
  8
0
  6
Continuous
 62
     7
370
    25
100
AcDbCircle
 10
9355.7773027466
 20
6674.296426081
 30
0.0
 40
28.9995571430519
100
AcDbArc
 50
307.0117794185
 51
307.4606042277
  0
CIRCLE
  5
137
330
1F
100
AcDbEntity
  8
0
  6
Continuous
 62
     7
370
    25
100
AcDbCircle
 10
9375.3572783386
 20
6651.6020543604
 30
0.0
 40
0.7447111979144848
  0
ARC
  5
138
330
1F
100
AcDbEntity
  8
0
  6
Continuous
 62
     7
370
    25
100
AcDbCircle
 10
9375.3625701833
 20
6652.0296227357
 30
0.0
 40
0.750030058904906
100
AcDbArc
 50
0.5129633341
 51
179.4870366659
  0
LWPOLYLINE
  5
139
330
1F
100
AcDbEntity
  8
0
  6
Continuous
 62
     7
370
    25
100
AcDbPolyline
 90
        3
 70
   128
 43
0.0
 10
9373.2344330028
 20
6652.5651123434
 10
9373.0997094303
 20
6652.7259049899
 10
9373.041053013
 20
6652.8660371782
  0
LINE
  5
13A
330
1F
100
AcDbEntity
  8
0
  6
Continuous
 62
     7
370
    25
100
AcDbLine
 10
9373.2344330028
 20
6652.1974879946
 30
0.0
 11
9373.2344330028
 21
6652.5651123434
 31
0.0
  0
LINE
  5
13B
330
1F
100
AcDbEntity
  8
0
  6
Continuous
 62
     7
370
    25
100
AcDbLine
 10
9377.4907073638
 20
6652.1974879946
 30
0.0
 11
9377.4907073638
 21
6652.5651123434
 31
0.0
  0
LWPOLYLINE
  5
13C
330
1F
100
AcDbEntity
  8
0
  6
Continuous
 62
     7
370
    25
100
AcDbPolyline
 90
        3
 70
   128
 43
0.0
 10
9377.6836967737
 20
6652.864629824
 10
9377.6254309363
 20
6652.7259049899
 10
9377.4907073638
 20
6652.5651123434
  0
LINE
  5
13D
330
1F
100
AcDbEntity
  8
0
  6
Continuous
 62
     7
370
    25
100
AcDbLine
 10
9373.4152912038
 20
6652.030449011
 30
0.0
 11
9373.4152912038
 21
6652.4128633543
 31
0.0
  0
ARC
  5
13E
330
1F
100
AcDbEntity
  8
0
  6
Continuous
 62
     7
370
    25
100
AcDbCircle
 10
9373.0989150679
 20
6652.0357083993
 30
0.0
 40
0.4922801229717899
100
AcDbArc
 50
0.0732305634
 51
50.0084208487
  0
ARC
  5
13F
330
1F
100
AcDbEntity
  8
0
  6
Continuous
 62
     7
370
    25
100
AcDbCircle
 10
9377.6262252987
 20
6652.0357083993
 30
0.0
 40
0.4922801229636299
100
AcDbArc
 50
129.991579151
 51
179.9267694371
  0
LINE
  5
140
330
1F
100
AcDbEntity
  8
0
  6
Continuous
 62
     7
370
    25
100
AcDbLine
 10
9377.3098491627
 20
6652.4128633543
 30
0.0
 11
9377.3098491627
 21
6652.030449011
 31
0.0
  0
LINE
  5
141
330
1F
100
AcDbEntity
  8
0
  6
Continuous
 62
     7
370
    25
100
AcDbLine
 10
9373.4152912038
 20
6652.4128633543
 30
0.0
 11
9373.2344330028
 21
6652.5651123434
 31
0.0
  0
LINE
  5
142
330
1F
100
AcDbEntity
  8
0
  6
Continuous
 62
     7
370
    25
100
AcDbLine
 10
9377.4907073638
 20
6652.5651123434
 30
0.0
 11
9377.3098491627
 21
6652.4128633543
 31
0.0
  0
LINE
  5
143
330
1F
100
AcDbEntity
  8
0
  6
Continuous
 62
     7
370
    25
100
AcDbLine
 10
9374.059201812
 20
6650.1744507219
 30
0.0
 11
9374.059201812
 21
6650.5568650652
 31
0.0
  0
ARC
  5
144
330
1F
100
AcDbEntity
  8
0
  6
Continuous
 62
     7
370
    25
100
AcDbCircle
 10
9374.2273746446
 20
6650.0856483968
 30
0.0
 40
0.5003271431237047
100
AcDbArc
 50
10.9094838244
 51
109.6410083168
  0
LINE
  5
145
330
1F
100
AcDbEntity
  8
0
  6
Continuous
 62
     7
370
    25
100
AcDbLine
 10
9374.7186595751
 20
6650.1803393003
 30
0.0
 11
9374.7186595751
 21
6649.7979249571
 31
0.0
  0
LINE
  5
146
330
1F
100
AcDbEntity
  8
0
  6
Continuous
 62
     7
370
    25
100
AcDbLine
 10
9376.0064807915
 20
6649.7979249571
 30
0.0
 11
9376.0064807915
 21
6650.1803393003
 31
0.0
  0
ARC
  5
147
330
1F
100
AcDbEntity
  8
0
  6
Continuous
 62
     7
370
    25
100
AcDbCircle
 10
9376.497765722
 20
6650.0856483968
 30
0.0
 40
0.5003271431224151
100
AcDbArc
 50
70.358991683
 51
169.0905161756
  0
LINE
  5
148
330
1F
100
AcDbEntity
  8
0
  6
Continuous
 62
     7
370
    25
100
AcDbLine
 10
9376.6659385546
 20
6650.5568650652
 30
0.0
 11
9376.6659385546
 21
6650.1744507219
 31
0.0
  0
LINE
  5
149
330
1F
100
AcDbEntity
  8
0
  6
Continuous
 62
     7
370
    25
100
AcDbLine
 10
9376.8896942255
 20
6650.110470289
 30
0.0
 11
9376.8896942255
 21
6650.4780946378
 31
0.0
  0
ARC
  5
14A
330
1F
100
AcDbEntity
  8
0
  6
Continuous
 62
     7
370
    25
100
AcDbCircle
 10
9377.0950580691
 20
6651.054999806
 30
0.0
 40
0.6123674398081735
100
AcDbArc
 50
250.4055394671
 51
341.5910971723
  0
ARC
  5
14B
330
1F
100
AcDbEntity
  8
0
  6
Continuous
 62
     7
370
    25
100
AcDbCircle
 10
9373.629796288
 20
6651.0544094275
 30
0.0
 40
0.611907344978002
100
AcDbArc
 50
198.3165637954
 51
289.6382288048
  0
LINE
  5
14C
330
1F
100
AcDbEntity
  8
0
  6
Continuous
 62
     7
370
    25
100
AcDbLine
 10
9373.8354461411
 20
6650.110470289
 30
0.0
 11
9373.8354461411
 21
6650.4780946378
 31
0.0
  0
LINE
  5
14D
330
1F
100
AcDbEntity
  8
0
  6
Continuous
 62
     7
370
    25
100
AcDbLine
 10
9374.059201812
 20
6650.5568650652
 30
0.0
 11
9373.8354461411
 21
6650.4780946378
 31
0.0
  0
LINE
  5
14E
330
1F
100
AcDbEntity
  8
0
  6
Continuous
 62
     7
370
    25
100
AcDbLine
 10
9376.8896942255
 20
6650.4780946378
 30
0.0
 11
9376.6659385546
 21
6650.5568650652
 31
0.0
  0
LINE
  5
14F
330
1F
100
AcDbEntity
  8
0
  6
Continuous
 62
     7
370
    25
100
AcDbLine
 10
9375.9635833216
 20
6649.581695535
 30
0.0
 11
9375.9635833216
 21
6649.9493198838
 31
0.0
  0
LINE
  5
150
330
1F
100
AcDbEntity
  8
0
  6
Continuous
 62
     7
370
    25
100
AcDbLine
 10
9376.0064807915
 20
6650.1803393003
 30
0.0
 11
9375.9635833216
 21
6649.9493198838
 31
0.0
  0
LINE
  5
151
330
1F
100
AcDbEntity
  8
0
  6
Continuous
 62
     7
370
    25
100
AcDbLine
 10
9374.761557045
 20
6649.581695535
 30
0.0
 11
9374.761557045
 21
6649.9493198838
 31
0.0
  0
LINE
  5
152
330
1F
100
AcDbEntity
  8
0
  6
Continuous
 62
     7
370
    25
100
AcDbLine
 10
9374.761557045
 20
6649.9493198838
 30
0.0
 11
9374.7186595751
 21
6650.1803393003
 31
0.0
  0
ARC
  5
153
330
1F
100
AcDbEntity
  8
0
  6
Continuous
 62
     7
370
    25
100
AcDbCircle
 10
9375.3625701833
 20
6650.0654411007
 30
0.0
 40
0.6121281968807297
100
AcDbArc
 50
190.9353245365
 51
349.0646754636
  0
ARC
  5
154
330
1F
100
AcDbEntity
  8
0
  6
Continuous
 62
     7
370
    25
100
AcDbCircle
 10
9375.3625701833
 20
6652.0723548248
 30
0.0
 40
4.500161736063697
100
AcDbArc
 50
0.4857673311
 51
179.5142326689
  0
CIRCLE
  5
155
330
1F
100
AcDbEntity
  8
0
  6
Continuous
 62
     7
370
    25
100
AcDbCircle
 10
9215.3995112978
 20
6834.9982970326
 30
0.0
 40
4.463067431852433
  0
SPLINE
  5
156
330
1F
100
AcDbEntity
  8
0
  6
Continuous
 62
     7
370
    25
100
AcDbSpline
210
0.0
220
0.0
230
1.0
 70
     8
 71
     3
 72
    16
 73
    12
 74
     0
 42
0.00000001
 43
0.00000001
 40
0.0
 40
0.0
 40
0.0
 40
0.0
 40
0.1348147858417751
 40
0.2700723340770229
 40
0.3961092720444729
 40
0.509193562406504
 40
0.6146164132486996
 40
0.7203253099189968
 40
0.8329031370168178
 40
0.9561998018090018
 40
1.0
 40
1.0
 40
1.0
 40
1.0
 10
9213.835446141054
 20
6833.063695569622
 30
0.0
 10
9213.764230542323
 20
6833.051343977989
 30
0.0
 10
9213.621565456646
 20
6833.026600229288
 30
0.0
 10
9213.3995504578
 20
6833.085953092307
 30
0.0
 10
9213.213304101711
 20
6833.208597512484
 30
0.0
 10
9213.085928898714
 20
6833.372636678187
 30
0.0
 10
9213.021070183555
 20
6833.550867402711
 30
0.0
 10
9213.014092978596
 20
6833.731688997669
 30
0.0
 10
9213.065773623512
 20
6833.906186391282
 30
0.0
 10
9213.15071177676
 20
6834.02502465524
 30
0.0
 10
9213.217045343252
 20
6834.079012282167
 30
0.0
 10
9213.234433002764
 20
6834.093163767223
 30
0.0
  0
ARC
  5
157
330
1F
100
AcDbEntity
  8
0
  6
Continuous
 62
     7
370
    25
100
AcDbCircle
 10
9207.0186702671
 20
6857.3269310033
 30
0.0
 40
25.20263928687119
100
AcDbArc
 50
285.6927513469
 51
286.2218271074
  0
SPLINE
  5
158
330
1F
100
AcDbEntity
  8
0
  6
Continuous
 62
     7
370
    25
100
AcDbSpline
210
0.0
220
0.0
230
1.0
 70
     8
 71
     3
 72
    13
 73
     9
 74
     0
 42
0.00000001
 43
0.00000001
 40
0.0
 40
0.0
 40
0.0
 40
0.0
 40
0.1912350196657732
 40
0.3830645276018793
 40
0.5617575676958625
 40
0.7320257694395422
 40
0.9058232181829168
 40
1.0
 40
1.0
 40
1.0
 40
1.0
 10
9214.718659575105
 20
6832.751150237706
 30
0.0
 10
9214.704231088734
 20
6832.799417789093
 30
0.0
 10
9214.67532926246
 20
6832.896102940186
 30
0.0
 10
9214.569363552722
 20
6833.020889652588
 30
0.0
 10
9214.433053946921
 20
6833.107673896475
 30
0.0
 10
9214.282621407905
 20
6833.14994031604
 30
0.0
 10
9214.155136949612
 20
6833.151037758206
 30
0.0
 10
9214.08414958854
 20
6833.133751189125
 30
0.0
 10
9214.059201812028
 20
6833.127676002563
 30
0.0
  0
ARC
  5
159
330
1F
100
AcDbEntity
  8
0
  6
Continuous
 62
     7
370
    25
100
AcDbCircle
 10
9324.3289814394
 20
6854.3842275468
 30
0.0
 40
111.724718361918
100
AcDbArc
 50
191.16460907
 51
191.2776591353
  0
SPLINE
  5
15A
330
1F
100
AcDbEntity
  8
0
  6
Continuous
 62
     7
370
    25
100
AcDbSpline
210
0.0
220
0.0
230
1.0
 70
     8
 71
     3
 72
    16
 73
    12
 74
     0
 42
0.00000001
 43
0.00000001
 40
0.0
 40
0.0
 40
0.0
 40
0.0
 40
0.1348199257510047
 40
0.2700771320767885
 40
0.3961135838171345
 40
0.5091974703392985
 40
0.6146201940046092
 40
0.720329240625965
 40
0.8329074133101317
 40
0.9562045015597427
 40
1.0
 40
1.0
 40
1.0
 40
1.0
 10
9215.963583321583
 20
6832.534920815614
 30
0.0
 10
9215.94301905947
 20
6832.470164500846
 30
0.0
 10
9215.901823836255
 20
6832.340441837977
 30
0.0
 10
9215.749245639208
 20
6832.185918410823
 30
0.0
 10
9215.555182972877
 20
6832.091423644438
 30
0.0
 10
9215.349642208956
 20
6832.065382451439
 30
0.0
 10
9215.158907974901
 20
6832.097680628921
 30
0.0
 10
9214.99151583246
 20
6832.178944971672
 30
0.0
 10
9214.856012629618
 20
6832.305583660072
 30
0.0
 10
9214.785991829145
 20
6832.432936476891
 30
0.0
 10
9214.766631459472
 20
6832.513741549158
 30
0.0
 10
9214.761557045002
 20
6832.534920815614
 30
0.0
  0
ARC
  5
15B
330
1F
100
AcDbEntity
  8
0
  6
Continuous
 62
     7
370
    25
100
AcDbCircle
 10
9106.3961589273
 20
6854.3842275468
 30
0.0
 40
111.7247183618012
100
AcDbArc
 50
348.7223408647
 51
348.83539093
  0
SPLINE
  5
15C
330
1F
100
AcDbEntity
  8
0
  6
Continuous
 62
     7
370
    25
100
AcDbSpline
210
0.0
220
0.0
230
1.0
 70
     8
 71
     3
 72
    13
 73
     9
 74
     0
 42
0.00000001
 43
0.00000001
 40
0.0
 40
0.0
 40
0.0
 40
0.0
 40
0.1912350196657871
 40
0.3830645276018864
 40
0.5617575676958314
 40
0.7320257694395613
 40
0.9058232181829418
 40
1.0
 40
1.0
 40
1.0
 40
1.0
 10
9216.665938554557
 20
6833.127676002563
 30
0.0
 10
9216.613979755164
 20
6833.138038892046
 30
0.0
 10
9216.509900633155
 20
6833.158796885908
 30
0.0
 10
9216.343730674153
 20
6833.12820429041
 30
0.0
 10
9216.19903122224
 20
6833.054542852539
 30
0.0
 10
9216.089457957518
 20
6832.948355664306
 30
0.0
 10
9216.029145395853
 20
6832.842228018626
 30
0.0
 10
9216.012374684988
 20
6832.774834866519
 30
0.0
 10
9216.00648079148
 20
6832.751150237706
 30
0.0
  0
ARC
  5
15D
330
1F
100
AcDbEntity
  8
0
  6
Continuous
 62
     7
370
    25
100
AcDbCircle
 10
9223.7064700895
 20
6857.3269309685
 30
0.0
 40
25.20263925067973
100
AcDbArc
 50
253.7781728923
 51
254.3072486535
  0
SPLINE
  5
15E
330
1F
100
AcDbEntity
  8
0
  6
Continuous
 62
     7
370
    25
100
AcDbSpline
210
0.0
220
0.0
230
1.0
 70
     8
 71
     3
 72
    16
 73
    12
 74
     0
 42
0.00000001
 43
0.00000001
 40
0.0
 40
0.0
 40
0.0
 40
0.0
 40
0.1347595790864252
 40
0.2700207988599191
 40
0.3960629591195683
 40
0.5091515875631544
 40
0.6145758051161131
 40
0.7202830918048925
 40
0.8328572074327855
 40
0.9561493240418346
 40
1.0
 40
1.0
 40
1.0
 40
1.0
 10
9217.49070736382
 20
6834.093163767223
 30
0.0
 10
9217.541340637501
 20
6834.04561168575
 30
0.0
 10
9217.642795666528
 20
6833.950330510834
 30
0.0
 10
9217.712259575586
 20
6833.748380050994
 30
0.0
 10
9217.704474878103
 20
6833.538614189331
 30
0.0
 10
9217.626331825459
 20
6833.350571060332
 30
0.0
 10
9217.500470948386
 20
6833.202077867073
 30
0.0
 10
9217.340066937564
 20
6833.096156418457
 30
0.0
 10
9217.15289083563
 20
6833.038529683258
 30
0.0
 10
9216.997902837868
 20
6833.037404962693
 30
0.0
 10
9216.912183171888
 20
6833.058231604821
 30
0.0
 10
9216.88969422553
 20
6833.063695569622
 30
0.0
  0
ARC
  5
15F
330
1F
100
AcDbEntity
  8
0
  6
Continuous
 62
     7
370
    25
100
AcDbCircle
 10
9234.9478376744
 20
6857.2496514331
 30
0.0
 40
28.99955723282841
100
AcDbArc
 50
232.5393957728
 51
232.9882205806
  0
SPLINE
  5
160
330
1F
100
AcDbEntity
  8
0
  6
Continuous
 62
     7
370
    25
100
AcDbSpline
210
0.0
220
0.0
230
1.0
 70
     8
 71
     3
 72
    13
 73
     9
 74
     0
 42
0.00000001
 43
0.00000001
 40
0.0
 40
0.0
 40
0.0
 40
0.0
 40
0.1912350196657299
 40
0.3830645276018504
 40
0.5617575676958073
 40
0.7320257694395284
 40
0.9058232181829121
 40
1.0
 40
1.0
 40
1.0
 40
1.0
 10
9217.309849162746
 20
6834.983674291662
 30
0.0
 10
9217.272318849722
 20
6834.942942238626
 30
0.0
 10
9217.197141553985
 20
6834.861351509679
 30
0.0
 10
9217.136937304722
 20
6834.701507691914
 30
0.0
 10
9217.128547458611
 20
6834.540437979766
 30
0.0
 10
9217.169406732903
 20
6834.395017668123
 30
0.0
 10
9217.236578629532
 20
6834.292806446644
 30
0.0
 10
9217.29079527974
 20
6834.246793528028
 30
0.0
 10
9217.309849162746
 20
6834.23062276195
 30
0.0
  0
ARC
  5
161
330
1F
100
AcDbEntity
  8
0
  6
Continuous
 62
     7
370
    25
100
AcDbCircle
 10
9192.3540856295
 20
6862.1854702871
 30
0.0
 40
36.9151437611302
100
AcDbArc
 50
312.5342265837
 51
312.9163442748
  0
SPLINE
  5
162
330
1F
100
AcDbEntity
  8
0
  6
Continuous
 62
     7
370
    25
100
AcDbSpline
210
0.0
220
0.0
230
1.0
 70
     8
 71
     3
 72
    16
 73
    12
 74
     0
 42
0.00000001
 43
0.00000001
 40
0.0
 40
0.0
 40
0.0
 40
0.0
 40
0.1348147858417735
 40
0.2700723340770125
 40
0.3961092720444521
 40
0.5091935624065084
 40
0.6146164132486828
 40
0.7203253099189847
 40
0.8329031370167964
 40
0.9561998018089942
 40
0.9999999999999999
 40
0.9999999999999999
 40
0.9999999999999999
 40
0.9999999999999999
 10
9216.88969422553
 20
6836.180181472839
 30
0.0
 10
9216.960909824262
 20
6836.202189500521
 30
0.0
 10
9217.103574909937
 20
6836.24627783525
 30
0.0
 10
9217.325589908785
 20
6836.210699104199
 30
0.0
 10
9217.511836264874
 20
6836.102814889668
 30
0.0
 10
9217.63921146787
 20
6835.942882123712
 30
0.0
 10
9217.704070183028
 20
6835.759566455675
 30
0.0
 10
9217.71104738799
 20
6835.566054610103
 30
0.0
 10
9217.659366743073
 20
6835.372064477192
 30
0.0
 10
9217.574428589825
 20
6835.233986254949
 30
0.0
 10
9217.508095023333
 20
6835.168007840629
 30
0.0
 10
9217.49070736382
 20
6835.150713275239
 30
0.0
  0
ARC
  5
163
330
1F
100
AcDbEntity
  8
0
  6
Continuous
 62
     7
370
    25
100
AcDbCircle
 10
9205.7739049704
 20
6862.4499519566
 30
0.0
 40
28.52475437285157
100
AcDbArc
 50
292.448010402
 51
292.9351630879
  0
SPLINE
  5
164
330
1F
100
AcDbEntity
  8
0
  6
Continuous
 62
     7
370
    25
100
AcDbSpline
210
0.0
220
0.0
230
1.0
 70
     8
 71
     3
 72
    13
 73
     9
 74
     0
 42
0.00000001
 43
0.00000001
 40
0.0
 40
0.0
 40
0.0
 40
0.0
 40
0.1912350196657485
 40
0.3830645276018516
 40
0.5617575676958446
 40
0.7320257694395244
 40
0.9058232181829197
 40
1.0
 40
1.0
 40
1.0
 40
1.0
 10
9216.00648079148
 20
6836.463146815905
 30
0.0
 10
9216.02090927785
 20
6836.409224482252
 30
0.0
 10
9216.049811104123
 20
6836.301212187725
 30
0.0
 10
9216.155776813861
 20
6836.167496455596
 30
0.0
 10
9216.292086419664
 20
6836.079464150929
 30
0.0
 10
9216.44251895868
 20
6836.043264323673
 30
0.0
 10
9216.570003416973
 20
6836.052194614243
 30
0.0
 10
9216.640990778045
 20
6836.077668512144
 30
0.0
 10
9216.665938554557
 20
6836.086621051049
 30
0.0
  0
ARC
  5
165
330
1F
100
AcDbEntity
  8
0
  6
Continuous
 62
     7
370
    25
100
AcDbCircle
 10
9375.6102199645
 20
6864.4430675195
 30
0.0
 40
162.037741037618
100
AcDbArc
 50
189.8551743994
 51
189.9434050804
  0
SPLINE
  5
166
330
1F
100
AcDbEntity
  8
0
  6
Continuous
 62
     7
370
    25
100
AcDbSpline
210
0.0
220
0.0
230
1.0
 70
     8
 71
     3
 72
    16
 73
    12
 74
     0
 42
0.00000001
 43
0.00000001
 40
0.0
 40
0.0
 40
0.0
 40
0.0
 40
0.1348199257509994
 40
0.2700771320767877
 40
0.3961135838171397
 40
0.5091974703393023
 40
0.6146201940046122
 40
0.7203292406259635
 40
0.832907413310132
 40
0.9562045015597187
 40
0.9999999999999999
 40
0.9999999999999999
 40
0.9999999999999999
 40
0.9999999999999999
 10
9214.761557045002
 20
6836.708956226847
 30
0.0
 10
9214.782121307115
 20
6836.783369346667
 30
0.0
 10
9214.82331653033
 20
6836.932436940929
 30
0.0
 10
9214.975894727375
 20
6837.110734517354
 30
0.0
 10
9215.169957393708
 20
6837.219989097988
 30
0.0
 10
9215.37549815763
 20
6837.250136320458
 30
0.0
 10
9215.566232391684
 20
6837.212752899822
 30
0.0
 10
9215.733624534125
 20
6837.118798047343
 30
0.0
 10
9215.869127736967
 20
6836.972666385294
 30
0.0
 10
9215.939148537436
 20
6836.826073792575
 30
0.0
 10
9215.958508907113
 20
6836.733278237092
 30
0.0
 10
9215.963583321583
 20
6836.708956226847
 30
0.0
  0
ARC
  5
167
330
1F
100
AcDbEntity
  8
0
  6
Continuous
 62
     7
370
    25
100
AcDbCircle
 10
9055.114920402
 20
6864.4430675195
 30
0.0
 40
162.0377410377509
100
AcDbArc
 50
350.0565949196
 51
350.1448256006
  0
SPLINE
  5
168
330
1F
100
AcDbEntity
  8
0
  6
Continuous
 62
     7
370
    25
100
AcDbSpline
210
0.0
220
0.0
230
1.0
 70
     8
 71
     3
 72
    13
 73
     9
 74
     0
 42
0.00000001
 43
0.00000001
 40
0.0
 40
0.0
 40
0.0
 40
0.0
 40
0.1912350196657701
 40
0.3830645276018767
 40
0.5617575676958618
 40
0.7320257694395533
 40
0.9058232181829149
 40
1.0
 40
1.0
 40
1.0
 40
1.0
 10
9214.059201812028
 20
6836.086621051049
 30
0.0
 10
9214.111160611421
 20
6836.070603379299
 30
0.0
 10
9214.21523973343
 20
6836.038518242003
 30
0.0
 10
9214.381409692432
 20
6836.060181817775
 30
0.0
 10
9214.526109144344
 20
6836.132595194864
 30
0.0
 10
9214.635682409067
 20
6836.244848975406
 30
0.0
 10
9214.695994970732
 20
6836.361004353822
 30
0.0
 10
9214.712765681597
 20
6836.436584834751
 30
0.0
 10
9214.718659575105
 20
6836.463146815905
 30
0.0
  0
ARC
  5
169
330
1F
100
AcDbEntity
  8
0
  6
Continuous
 62
     7
370
    25
100
AcDbCircle
 10
9224.9512353511
 20
6862.4499518484
 30
0.0
 40
28.52475425567979
100
AcDbArc
 50
247.0648369109
 51
247.5519895988
  0
SPLINE
  5
16A
330
1F
100
AcDbEntity
  8
0
  6
Continuous
 62
     7
370
    25
100
AcDbSpline
210
0.0
220
0.0
230
1.0
 70
     8
 71
     3
 72
    16
 73
    12
 74
     0
 42
0.00000001
 43
0.00000001
 40
0.0
 40
0.0
 40
0.0
 40
0.0
 40
0.1347595790864391
 40
0.2700207988599367
 40
0.3960629591195751
 40
0.5091515875631502
 40
0.6145758051161228
 40
0.720283091804899
 40
0.8328572074327892
 40
0.9561493240418516
 40
1.0
 40
1.0
 40
1.0
 40
1.0
 10
9213.234433002764
 20
6835.150713275239
 30
0.0
 10
9213.183799729084
 20
6835.207917829372
 30
0.0
 10
9213.082344700055
 20
6835.32253988081
 30
0.0
 10
9213.012880790999
 20
6835.548264285995
 30
0.0
 10
9213.020665488482
 20
6835.772794557092
 30
0.0
 10
9213.098808541126
 20
6835.964948063018
 30
0.0
 10
9213.2246694182
 20
6836.108359531278
 30
0.0
 10
9213.385073429019
 20
6836.201593512437
 30
0.0
 10
9213.572249530953
 20
6836.23973002549
 30
0.0
 10
9213.727237528718
 20
6836.221612829165
 30
0.0
 10
9213.812957194697
 20
6836.188792132654
 30
0.0
 10
9213.835446141054
 20
6836.18018147284
 30
0.0
  0
ARC
  5
16B
330
1F
100
AcDbEntity
  8
0
  6
Continuous
 62
     7
370
    25
100
AcDbCircle
 10
9238.3710547373
 20
6862.1854702873
 30
0.0
 40
36.91514376139602
100
AcDbArc
 50
227.0836557252
 51
227.4657734163
  0
SPLINE
  5
16C
330
1F
100
AcDbEntity
  8
0
  6
Continuous
 62
     7
370
    25
100
AcDbSpline
210
0.0
220
0.0
230
1.0
 70
     8
 71
     3
 72
    13
 73
     9
 74
     0
 42
0.00000001
 43
0.00000001
 40
0.0
 40
0.0
 40
0.0
 40
0.0
 40
0.191235019665755
 40
0.3830645276018746
 40
0.5617575676958114
 40
0.7320257694395149
 40
0.9058232181829252
 40
1.0
 40
1.0
 40
1.0
 40
1.0
 10
9213.415291203839
 20
6834.23062276195
 30
0.0
 10
9213.452821516861
 20
6834.265700032721
 30
0.0
 10
9213.5279988126
 20
6834.335963618232
 30
0.0
 10
9213.588203061861
 20
6834.486878416272
 30
0.0
 10
9213.596592907972
 20
6834.646700067637
 30
0.0
 10
9213.555733633679
 20
6834.79818697159
 30
0.0
 10
9213.488561737053
 20
6834.910425925805
 30
0.0
 10
9213.434345086844
 20
6834.964626173241
 30
0.0
 10
9213.415291203839
 20
6834.983674291662
 30
0.0
  0
ARC
  5
16D
330
1F
100
AcDbEntity
  8
0
  6
Continuous
 62
     7
370
    25
100
AcDbCircle
 10
9195.777302692
 20
6857.2496514333
 30
0.0
 40
28.99955723307507
100
AcDbArc
 50
307.0117794194
 51
307.4606042272
  0
CIRCLE
  5
16E
330
1F
100
AcDbEntity
  8
0
  6
Continuous
 62
     7
370
    25
100
AcDbCircle
 10
9215.3572783386
 20
6834.5552796411
 30
0.0
 40
0.7447111979144848
  0
ARC
  5
16F
330
1F
100
AcDbEntity
  8
0
  6
Continuous
 62
     7
370
    25
100
AcDbCircle
 10
9215.3625701833
 20
6834.9828480163
 30
0.0
 40
0.7500300589048979
100
AcDbArc
 50
0.512963334
 51
179.487036666
  0
LWPOLYLINE
  5
170
330
1F
100
AcDbEntity
  8
0
  6
Continuous
 62
     7
370
    25
100
AcDbPolyline
 90
        3
 70
   128
 43
0.0
 10
9213.2344330028
 20
6835.5183376241
 10
9213.0997094303
 20
6835.6791302706
 10
9213.041053013
 20
6835.8192624588
  0
LINE
  5
171
330
1F
100
AcDbEntity
  8
0
  6
Continuous
 62
     7
370
    25
100
AcDbLine
 10
9213.2344330028
 20
6835.1507132752
 30
0.0
 11
9213.2344330028
 21
6835.5183376241
 31
0.0
  0
LINE
  5
172
330
1F
100
AcDbEntity
  8
0
  6
Continuous
 62
     7
370
    25
100
AcDbLine
 10
9217.4907073638
 20
6835.1507132752
 30
0.0
 11
9217.4907073638
 21
6835.5183376241
 31
0.0
  0
LWPOLYLINE
  5
173
330
1F
100
AcDbEntity
  8
0
  6
Continuous
 62
     7
370
    25
100
AcDbPolyline
 90
        3
 70
   128
 43
0.0
 10
9217.6836967737
 20
6835.8178551047
 10
9217.6254309363
 20
6835.6791302706
 10
9217.4907073638
 20
6835.5183376241
  0
LINE
  5
174
330
1F
100
AcDbEntity
  8
0
  6
Continuous
 62
     7
370
    25
100
AcDbLine
 10
9213.4152912038
 20
6834.9836742917
 30
0.0
 11
9213.4152912038
 21
6835.3660886349
 31
0.0
  0
ARC
  5
175
330
1F
100
AcDbEntity
  8
0
  6
Continuous
 62
     7
370
    25
100
AcDbCircle
 10
9213.0989150679
 20
6834.9889336799
 30
0.0
 40
0.4922801229686746
100
AcDbArc
 50
0.073230563
 51
50.0084208486
  0
ARC
  5
176
330
1F
100
AcDbEntity
  8
0
  6
Continuous
 62
     7
370
    25
100
AcDbCircle
 10
9217.6262252987
 20
6834.9889336799
 30
0.0
 40
0.4922801229704959
100
AcDbArc
 50
129.9915791514
 51
179.9267694368
  0
LINE
  5
177
330
1F
100
AcDbEntity
  8
0
  6
Continuous
 62
     7
370
    25
100
AcDbLine
 10
9217.3098491627
 20
6835.3660886349
 30
0.0
 11
9217.3098491627
 21
6834.9836742917
 31
0.0
  0
LINE
  5
178
330
1F
100
AcDbEntity
  8
0
  6
Continuous
 62
     7
370
    25
100
AcDbLine
 10
9213.4152912038
 20
6835.3660886349
 30
0.0
 11
9213.2344330028
 21
6835.5183376241
 31
0.0
  0
LINE
  5
179
330
1F
100
AcDbEntity
  8
0
  6
Continuous
 62
     7
370
    25
100
AcDbLine
 10
9217.4907073638
 20
6835.5183376241
 30
0.0
 11
9217.3098491627
 21
6835.3660886349
 31
0.0
  0
LINE
  5
17A
330
1F
100
AcDbEntity
  8
0
  6
Continuous
 62
     7
370
    25
100
AcDbLine
 10
9216.0064807915
 20
6832.7511502377
 30
0.0
 11
9216.0064807915
 21
6833.133564581
 31
0.0
  0
ARC
  5
17B
330
1F
100
AcDbEntity
  8
0
  6
Continuous
 62
     7
370
    25
100
AcDbCircle
 10
9216.497765722
 20
6833.0388736775
 30
0.0
 40
0.5003271431207019
100
AcDbArc
 50
70.3589916829
 51
169.090516176
  0
LINE
  5
17C
330
1F
100
AcDbEntity
  8
0
  6
Continuous
 62
     7
370
    25
100
AcDbLine
 10
9216.6659385546
 20
6833.5100903458
 30
0.0
 11
9216.6659385546
 21
6833.1276760026
 31
0.0
  0
LINE
  5
17D
330
1F
100
AcDbEntity
  8
0
  6
Continuous
 62
     7
370
    25
100
AcDbLine
 10
9214.059201812
 20
6833.1276760026
 30
0.0
 11
9214.059201812
 21
6833.5100903458
 31
0.0
  0
ARC
  5
17E
330
1F
100
AcDbEntity
  8
0
  6
Continuous
 62
     7
370
    25
100
AcDbCircle
 10
9214.2273746446
 20
6833.0388736775
 30
0.0
 40
0.5003271431215586
100
AcDbArc
 50
10.9094838241
 51
109.641008317
  0
LINE
  5
17F
330
1F
100
AcDbEntity
  8
0
  6
Continuous
 62
     7
370
    25
100
AcDbLine
 10
9214.7186595751
 20
6833.133564581
 30
0.0
 11
9214.7186595751
 21
6832.7511502377
 31
0.0
  0
LINE
  5
180
330
1F
100
AcDbEntity
  8
0
  6
Continuous
 62
     7
370
    25
100
AcDbLine
 10
9216.8896942255
 20
6833.0636955696
 30
0.0
 11
9216.8896942255
 21
6833.4313199184
 31
0.0
  0
ARC
  5
181
330
1F
100
AcDbEntity
  8
0
  6
Continuous
 62
     7
370
    25
100
AcDbCircle
 10
9217.0950580691
 20
6834.0082250866
 30
0.0
 40
0.6123674398075635
100
AcDbArc
 50
250.4055394672
 51
341.5910971723
  0
ARC
  5
182
330
1F
100
AcDbEntity
  8
0
  6
Continuous
 62
     7
370
    25
100
AcDbCircle
 10
9213.629796288
 20
6834.0076347081
 30
0.0
 40
0.6119073449812285
100
AcDbArc
 50
198.3165637958
 51
289.6382288045
  0
LINE
  5
183
330
1F
100
AcDbEntity
  8
0
  6
Continuous
 62
     7
370
    25
100
AcDbLine
 10
9213.8354461411
 20
6833.0636955696
 30
0.0
 11
9213.8354461411
 21
6833.4313199184
 31
0.0
  0
LINE
  5
184
330
1F
100
AcDbEntity
  8
0
  6
Continuous
 62
     7
370
    25
100
AcDbLine
 10
9214.059201812
 20
6833.5100903458
 30
0.0
 11
9213.8354461411
 21
6833.4313199184
 31
0.0
  0
LINE
  5
185
330
1F
100
AcDbEntity
  8
0
  6
Continuous
 62
     7
370
    25
100
AcDbLine
 10
9216.8896942255
 20
6833.4313199184
 30
0.0
 11
9216.6659385546
 21
6833.5100903458
 31
0.0
  0
LINE
  5
186
330
1F
100
AcDbEntity
  8
0
  6
Continuous
 62
     7
370
    25
100
AcDbLine
 10
9215.9635833216
 20
6832.5349208156
 30
0.0
 11
9215.9635833216
 21
6832.9025451644
 31
0.0
  0
LINE
  5
187
330
1F
100
AcDbEntity
  8
0
  6
Continuous
 62
     7
370
    25
100
AcDbLine
 10
9216.0064807915
 20
6833.133564581
 30
0.0
 11
9215.9635833216
 21
6832.9025451644
 31
0.0
  0
LINE
  5
188
330
1F
100
AcDbEntity
  8
0
  6
Continuous
 62
     7
370
    25
100
AcDbLine
 10
9214.761557045
 20
6832.5349208156
 30
0.0
 11
9214.761557045
 21
6832.9025451644
 31
0.0
  0
LINE
  5
189
330
1F
100
AcDbEntity
  8
0
  6
Continuous
 62
     7
370
    25
100
AcDbLine
 10
9214.761557045
 20
6832.9025451644
 30
0.0
 11
9214.7186595751
 21
6833.133564581
 31
0.0
  0
ARC
  5
18A
330
1F
100
AcDbEntity
  8
0
  6
Continuous
 62
     7
370
    25
100
AcDbCircle
 10
9215.3625701833
 20
6833.0186663814
 30
0.0
 40
0.6121281968809023
100
AcDbArc
 50
190.9353245366
 51
349.0646754635
  0
ARC
  5
18B
330
1F
100
AcDbEntity
  8
0
  6
Continuous
 62
     7
370
    25
100
AcDbCircle
 10
9215.3625701833
 20
6835.0255801054
 30
0.0
 40
4.500161736063728
100
AcDbArc
 50
0.4857673311
 51
179.5142326689
  0
CIRCLE
  5
18C
330
1F
100
AcDbEntity
  8
0
  6
Continuous
 62
     7
370
    25
100
AcDbCircle
 10
9215.3995112978
 20
6652.045071752
 30
0.0
 40
4.463067431852433
  0
SPLINE
  5
18D
330
1F
100
AcDbEntity
  8
0
  6
Continuous
 62
     7
370
    25
100
AcDbSpline
210
0.0
220
0.0
230
1.0
 70
     8
 71
     3
 72
    16
 73
    12
 74
     0
 42
0.00000001
 43
0.00000001
 40
0.0
 40
0.0
 40
0.0
 40
0.0
 40
0.1348147858417759
 40
0.2700723340770254
 40
0.3961092720444737
 40
0.5091935624065155
 40
0.6146164132486809
 40
0.7203253099189765
 40
0.8329031370168093
 40
0.9561998018090024
 40
1.0
 40
1.0
 40
1.0
 40
1.0
 10
9213.835446141054
 20
6650.110470288987
 30
0.0
 10
9213.764230542323
 20
6650.098118697354
 30
0.0
 10
9213.621565456646
 20
6650.073374948654
 30
0.0
 10
9213.3995504578
 20
6650.132727811672
 30
0.0
 10
9213.213304101711
 20
6650.255372231849
 30
0.0
 10
9213.085928898714
 20
6650.419411397551
 30
0.0
 10
9213.021070183555
 20
6650.597642122076
 30
0.0
 10
9213.014092978596
 20
6650.778463717034
 30
0.0
 10
9213.065773623512
 20
6650.952961110646
 30
0.0
 10
9213.15071177676
 20
6651.071799374604
 30
0.0
 10
9213.217045343252
 20
6651.125787001532
 30
0.0
 10
9213.234433002764
 20
6651.139938486589
 30
0.0
  0
ARC
  5
18E
330
1F
100
AcDbEntity
  8
0
  6
Continuous
 62
     7
370
    25
100
AcDbCircle
 10
9207.0186702796
 20
6674.3737056789
 30
0.0
 40
25.20263924134516
100
AcDbArc
 50
285.6927513464
 51
286.2218271078
  0
SPLINE
  5
18F
330
1F
100
AcDbEntity
  8
0
  6
Continuous
 62
     7
370
    25
100
AcDbSpline
210
0.0
220
0.0
230
1.0
 70
     8
 71
     3
 72
    13
 73
     9
 74
     0
 42
0.00000001
 43
0.00000001
 40
0.0
 40
0.0
 40
0.0
 40
0.0
 40
0.1912350196658004
 40
0.3830645276018843
 40
0.5617575676958517
 40
0.7320257694395408
 40
0.9058232181829163
 40
1.0
 40
1.0
 40
1.0
 40
1.0
 10
9214.718659575105
 20
6649.797924957073
 30
0.0
 10
9214.704231088734
 20
6649.846192508459
 30
0.0
 10
9214.67532926246
 20
6649.942877659551
 30
0.0
 10
9214.569363552722
 20
6650.067664371953
 30
0.0
 10
9214.433053946921
 20
6650.154448615839
 30
0.0
 10
9214.282621407905
 20
6650.196715035406
 30
0.0
 10
9214.155136949612
 20
6650.197812477571
 30
0.0
 10
9214.08414958854
 20
6650.18052590849
 30
0.0
 10
9214.059201812028
 20
6650.174450721928
 30
0.0
  0
ARC
  5
190
330
1F
100
AcDbEntity
  8
0
  6
Continuous
 62
     7
370
    25
100
AcDbCircle
 10
9324.3289812234
 20
6671.4310022232
 30
0.0
 40
111.7247181417169
100
AcDbArc
 50
191.1646090698
 51
191.2776591354
  0
SPLINE
  5
191
330
1F
100
AcDbEntity
  8
0
  6
Continuous
 62
     7
370
    25
100
AcDbSpline
210
0.0
220
0.0
230
1.0
 70
     8
 71
     3
 72
    16
 73
    12
 74
     0
 42
0.00000001
 43
0.00000001
 40
0.0
 40
0.0
 40
0.0
 40
0.0
 40
0.1348199257509915
 40
0.270077132076795
 40
0.3961135838171337
 40
0.5091974703392972
 40
0.6146201940046045
 40
0.7203292406259664
 40
0.8329074133101324
 40
0.9562045015597428
 40
0.9999999999999999
 40
0.9999999999999999
 40
0.9999999999999999
 40
0.9999999999999999
 10
9215.963583321583
 20
6649.581695534979
 30
0.0
 10
9215.94301905947
 20
6649.516939220211
 30
0.0
 10
9215.901823836255
 20
6649.387216557342
 30
0.0
 10
9215.749245639208
 20
6649.232693130189
 30
0.0
 10
9215.555182972877
 20
6649.138198363803
 30
0.0
 10
9215.349642208956
 20
6649.112157170804
 30
0.0
 10
9215.158907974901
 20
6649.144455348287
 30
0.0
 10
9214.99151583246
 20
6649.225719691037
 30
0.0
 10
9214.856012629618
 20
6649.352358379438
 30
0.0
 10
9214.785991829145
 20
6649.479711196256
 30
0.0
 10
9214.766631459472
 20
6649.560516268522
 30
0.0
 10
9214.761557045002
 20
6649.581695534979
 30
0.0
  0
ARC
  5
192
330
1F
100
AcDbEntity
  8
0
  6
Continuous
 62
     7
370
    25
100
AcDbCircle
 10
9106.3961591433
 20
6671.4310022232
 30
0.0
 40
111.7247181415999
100
AcDbArc
 50
348.7223408646
 51
348.8353909302
  0
SPLINE
  5
193
330
1F
100
AcDbEntity
  8
0
  6
Continuous
 62
     7
370
    25
100
AcDbSpline
210
0.0
220
0.0
230
1.0
 70
     8
 71
     3
 72
    13
 73
     9
 74
     0
 42
0.00000001
 43
0.00000001
 40
0.0
 40
0.0
 40
0.0
 40
0.0
 40
0.1912350196657846
 40
0.383064527601883
 40
0.5617575676958364
 40
0.7320257694395184
 40
0.9058232181829182
 40
0.9999999999999999
 40
0.9999999999999999
 40
0.9999999999999999
 40
0.9999999999999999
 10
9216.665938554557
 20
6650.174450721928
 30
0.0
 10
9216.613979755164
 20
6650.184813611411
 30
0.0
 10
9216.509900633155
 20
6650.205571605274
 30
0.0
 10
9216.343730674153
 20
6650.174979009776
 30
0.0
 10
9216.19903122224
 20
6650.101317571904
 30
0.0
 10
9216.089457957518
 20
6649.995130383671
 30
0.0
 10
9216.029145395853
 20
6649.889002737991
 30
0.0
 10
9216.012374684988
 20
6649.821609585884
 30
0.0
 10
9216.00648079148
 20
6649.797924957073
 30
0.0
  0
ARC
  5
194
330
1F
100
AcDbEntity
  8
0
  6
Continuous
 62
     7
370
    25
100
AcDbCircle
 10
9223.706470077
 20
6674.3737056441
 30
0.0
 40
25.20263920515369
100
AcDbArc
 50
253.7781728918
 51
254.307248654
  0
SPLINE
  5
195
330
1F
100
AcDbEntity
  8
0
  6
Continuous
 62
     7
370
    25
100
AcDbSpline
210
0.0
220
0.0
230
1.0
 70
     8
 71
     3
 72
    16
 73
    12
 74
     0
 42
0.00000001
 43
0.00000001
 40
0.0
 40
0.0
 40
0.0
 40
0.0
 40
0.1347595790864265
 40
0.2700207988599349
 40
0.3960629591195706
 40
0.5091515875631578
 40
0.6145758051161295
 40
0.7202830918048927
 40
0.8328572074327868
 40
0.9561493240418371
 40
0.9999999999999999
 40
0.9999999999999999
 40
0.9999999999999999
 40
0.9999999999999999
 10
9217.49070736382
 20
6651.139938486588
 30
0.0
 10
9217.541340637501
 20
6651.092386405116
 30
0.0
 10
9217.642795666528
 20
6650.997105230199
 30
0.0
 10
9217.712259575586
 20
6650.795154770359
 30
0.0
 10
9217.704474878103
 20
6650.585388908696
 30
0.0
 10
9217.626331825459
 20
6650.397345779698
 30
0.0
 10
9217.500470948386
 20
6650.248852586438
 30
0.0
 10
9217.340066937564
 20
6650.142931137822
 30
0.0
 10
9217.15289083563
 20
6650.085304402623
 30
0.0
 10
9216.997902837868
 20
6650.084179682058
 30
0.0
 10
9216.912183171888
 20
6650.105006324186
 30
0.0
 10
9216.88969422553
 20
6650.110470288987
 30
0.0
  0
ARC
  5
196
330
1F
100
AcDbEntity
  8
0
  6
Continuous
 62
     7
370
    25
100
AcDbCircle
 10
9234.9478376897
 20
6674.2964261727
 30
0.0
 40
28.99955725819612
100
AcDbArc
 50
232.5393957732
 51
232.9882205806
  0
SPLINE
  5
197
330
1F
100
AcDbEntity
  8
0
  6
Continuous
 62
     7
370
    25
100
AcDbSpline
210
0.0
220
0.0
230
1.0
 70
     8
 71
     3
 72
    13
 73
     9
 74
     0
 42
0.00000001
 43
0.00000001
 40
0.0
 40
0.0
 40
0.0
 40
0.0
 40
0.1912350196657738
 40
0.3830645276018611
 40
0.5617575676958454
 40
0.7320257694395338
 40
0.905823218182914
 40
1.0
 40
1.0
 40
1.0
 40
1.0
 10
9217.309849162746
 20
6652.030449011027
 30
0.0
 10
9217.272318849722
 20
6651.98971695799
 30
0.0
 10
9217.197141553985
 20
6651.908126229044
 30
0.0
 10
9217.136937304722
 20
6651.748282411279
 30
0.0
 10
9217.128547458611
 20
6651.587212699132
 30
0.0
 10
9217.169406732903
 20
6651.441792387487
 30
0.0
 10
9217.236578629532
 20
6651.339581166008
 30
0.0
 10
9217.29079527974
 20
6651.293568247393
 30
0.0
 10
9217.309849162746
 20
6651.277397481314
 30
0.0
  0
ARC
  5
198
330
1F
100
AcDbEntity
  8
0
  6
Continuous
 62
     7
370
    25
100
AcDbCircle
 10
9192.3540855798
 20
6679.2322450604
 30
0.0
 40
36.91514383445103
100
AcDbArc
 50
312.5342265839
 51
312.9163442743
  0
SPLINE
  5
199
330
1F
100
AcDbEntity
  8
0
  6
Continuous
 62
     7
370
    25
100
AcDbSpline
210
0.0
220
0.0
230
1.0
 70
     8
 71
     3
 72
    16
 73
    12
 74
     0
 42
0.00000001
 43
0.00000001
 40
0.0
 40
0.0
 40
0.0
 40
0.0
 40
0.1348147858417732
 40
0.2700723340770096
 40
0.3961092720444644
 40
0.5091935624065083
 40
0.6146164132486823
 40
0.7203253099189685
 40
0.8329031370167949
 40
0.9561998018090052
 40
1.0
 40
1.0
 40
1.0
 40
1.0
 10
9216.88969422553
 20
6653.226956192205
 30
0.0
 10
9216.960909824262
 20
6653.248964219887
 30
0.0
 10
9217.103574909937
 20
6653.293052554614
 30
0.0
 10
9217.325589908785
 20
6653.257473823563
 30
0.0
 10
9217.511836264874
 20
6653.149589609032
 30
0.0
 10
9217.63921146787
 20
6652.989656843076
 30
0.0
 10
9217.704070183028
 20
6652.806341175039
 30
0.0
 10
9217.71104738799
 20
6652.612829329468
 30
0.0
 10
9217.659366743073
 20
6652.418839196557
 30
0.0
 10
9217.574428589825
 20
6652.280760974313
 30
0.0
 10
9217.508095023333
 20
6652.214782559994
 30
0.0
 10
9217.49070736382
 20
6652.197487994603
 30
0.0
  0
ARC
  5
19A
330
1F
100
AcDbEntity
  8
0
  6
Continuous
 62
     7
370
    25
100
AcDbCircle
 10
9205.7739050042
 20
6679.496726595
 30
0.0
 40
28.52475428516705
100
AcDbArc
 50
292.4480104014
 51
292.9351630889
  0
SPLINE
  5
19B
330
1F
100
AcDbEntity
  8
0
  6
Continuous
 62
     7
370
    25
100
AcDbSpline
210
0.0
220
0.0
230
1.0
 70
     8
 71
     3
 72
    13
 73
     9
 74
     0
 42
0.00000001
 43
0.00000001
 40
0.0
 40
0.0
 40
0.0
 40
0.0
 40
0.1912350196657774
 40
0.3830645276018553
 40
0.5617575676958311
 40
0.7320257694395179
 40
0.9058232181829107
 40
1.0
 40
1.0
 40
1.0
 40
1.0
 10
9216.00648079148
 20
6653.50992153527
 30
0.0
 10
9216.02090927785
 20
6653.455999201617
 30
0.0
 10
9216.049811104123
 20
6653.347986907092
 30
0.0
 10
9216.155776813861
 20
6653.214271174962
 30
0.0
 10
9216.292086419664
 20
6653.126238870293
 30
0.0
 10
9216.44251895868
 20
6653.090039043038
 30
0.0
 10
9216.570003416973
 20
6653.098969333607
 30
0.0
 10
9216.640990778045
 20
6653.12444323151
 30
0.0
 10
9216.665938554557
 20
6653.133395770415
 30
0.0
  0
ARC
  5
19C
330
1F
100
AcDbEntity
  8
0
  6
Continuous
 62
     7
370
    25
100
AcDbCircle
 10
9375.6102191865
 20
6681.489842103
 30
0.0
 40
162.0377402478531
100
AcDbArc
 50
189.8551743992
 51
189.9434050806
  0
SPLINE
  5
19D
330
1F
100
AcDbEntity
  8
0
  6
Continuous
 62
     7
370
    25
100
AcDbSpline
210
0.0
220
0.0
230
1.0
 70
     8
 71
     3
 72
    16
 73
    12
 74
     0
 42
0.00000001
 43
0.00000001
 40
0.0
 40
0.0
 40
0.0
 40
0.0
 40
0.1348199257509894
 40
0.2700771320767935
 40
0.3961135838171421
 40
0.5091974703393058
 40
0.6146201940046161
 40
0.7203292406259706
 40
0.8329074133101425
 40
0.9562045015597469
 40
1.0
 40
1.0
 40
1.0
 40
1.0
 10
9214.761557045002
 20
6653.755730946213
 30
0.0
 10
9214.782121307115
 20
6653.830144066033
 30
0.0
 10
9214.82331653033
 20
6653.979211660294
 30
0.0
 10
9214.975894727375
 20
6654.15750923672
 30
0.0
 10
9215.169957393708
 20
6654.266763817353
 30
0.0
 10
9215.37549815763
 20
6654.296911039823
 30
0.0
 10
9215.566232391684
 20
6654.259527619187
 30
0.0
 10
9215.733624534125
 20
6654.165572766708
 30
0.0
 10
9215.869127736967
 20
6654.01944110466
 30
0.0
 10
9215.939148537436
 20
6653.872848511941
 30
0.0
 10
9215.958508907113
 20
6653.780052956457
 30
0.0
 10
9215.963583321583
 20
6653.755730946213
 30
0.0
  0
ARC
  5
19E
330
1F
100
AcDbEntity
  8
0
  6
Continuous
 62
     7
370
    25
100
AcDbCircle
 10
9055.11492118
 20
6681.489842103
 30
0.0
 40
162.037740247988
100
AcDbArc
 50
350.0565949194
 51
350.1448256008
  0
SPLINE
  5
19F
330
1F
100
AcDbEntity
  8
0
  6
Continuous
 62
     7
370
    25
100
AcDbSpline
210
0.0
220
0.0
230
1.0
 70
     8
 71
     3
 72
    13
 73
     9
 74
     0
 42
0.00000001
 43
0.00000001
 40
0.0
 40
0.0
 40
0.0
 40
0.0
 40
0.1912350196657714
 40
0.3830645276018658
 40
0.5617575676958396
 40
0.7320257694395426
 40
0.9058232181829208
 40
0.9999999999999999
 40
0.9999999999999999
 40
0.9999999999999999
 40
0.9999999999999999
 10
9214.059201812028
 20
6653.133395770415
 30
0.0
 10
9214.111160611421
 20
6653.117378098666
 30
0.0
 10
9214.21523973343
 20
6653.085292961368
 30
0.0
 10
9214.381409692432
 20
6653.10695653714
 30
0.0
 10
9214.526109144344
 20
6653.17936991423
 30
0.0
 10
9214.635682409067
 20
6653.29162369477
 30
0.0
 10
9214.695994970732
 20
6653.407779073188
 30
0.0
 10
9214.712765681597
 20
6653.483359554116
 30
0.0
 10
9214.718659575105
 20
6653.50992153527
 30
0.0
  0
ARC
  5
1A0
330
1F
100
AcDbEntity
  8
0
  6
Continuous
 62
     7
370
    25
100
AcDbCircle
 10
9224.9512353391
 20
6679.4967265393
 30
0.0
 40
28.52475422475248
100
AcDbArc
 50
247.0648369106
 51
247.5519895991
  0
SPLINE
  5
1A1
330
1F
100
AcDbEntity
  8
0
  6
Continuous
 62
     7
370
    25
100
AcDbSpline
210
0.0
220
0.0
230
1.0
 70
     8
 71
     3
 72
    16
 73
    12
 74
     0
 42
0.00000001
 43
0.00000001
 40
0.0
 40
0.0
 40
0.0
 40
0.0
 40
0.1347595790864371
 40
0.2700207988599327
 40
0.3960629591195692
 40
0.509151587563157
 40
0.6145758051161281
 40
0.7202830918048951
 40
0.8328572074327868
 40
0.9561493240418473
 40
1.0
 40
1.0
 40
1.0
 40
1.0
 10
9213.234433002764
 20
6652.197487994603
 30
0.0
 10
9213.183799729084
 20
6652.254692548738
 30
0.0
 10
9213.082344700055
 20
6652.369314600175
 30
0.0
 10
9213.012880790999
 20
6652.595039005359
 30
0.0
 10
9213.020665488482
 20
6652.819569276458
 30
0.0
 10
9213.098808541126
 20
6653.011722782384
 30
0.0
 10
9213.2246694182
 20
6653.155134250643
 30
0.0
 10
9213.385073429019
 20
6653.248368231802
 30
0.0
 10
9213.572249530953
 20
6653.286504744855
 30
0.0
 10
9213.727237528718
 20
6653.26838754853
 30
0.0
 10
9213.812957194697
 20
6653.23556685202
 30
0.0
 10
9213.835446141054
 20
6653.226956192205
 30
0.0
  0
ARC
  5
1A2
330
1F
100
AcDbEntity
  8
0
  6
Continuous
 62
     7
370
    25
100
AcDbCircle
 10
9238.3710547869
 20
6679.2322450606
 30
0.0
 40
36.91514383471819
100
AcDbArc
 50
227.0836557258
 51
227.4657734161
  0
SPLINE
  5
1A3
330
1F
100
AcDbEntity
  8
0
  6
Continuous
 62
     7
370
    25
100
AcDbSpline
210
0.0
220
0.0
230
1.0
 70
     8
 71
     3
 72
    13
 73
     9
 74
     0
 42
0.00000001
 43
0.00000001
 40
0.0
 40
0.0
 40
0.0
 40
0.0
 40
0.1912350196657942
 40
0.3830645276018836
 40
0.5617575676958487
 40
0.7320257694395498
 40
0.9058232181829045
 40
1.0
 40
1.0
 40
1.0
 40
1.0
 10
9213.415291203839
 20
6651.277397481314
 30
0.0
 10
9213.452821516861
 20
6651.312474752085
 30
0.0
 10
9213.5279988126
 20
6651.382738337598
 30
0.0
 10
9213.588203061861
 20
6651.533653135636
 30
0.0
 10
9213.596592907972
 20
6651.693474787003
 30
0.0
 10
9213.555733633679
 20
6651.844961690955
 30
0.0
 10
9213.488561737051
 20
6651.957200645169
 30
0.0
 10
9213.434345086844
 20
6652.011400892607
 30
0.0
 10
9213.415291203839
 20
6652.030449011027
 30
0.0
  0
ARC
  5
1A4
330
1F
100
AcDbEntity
  8
0
  6
Continuous
 62
     7
370
    25
100
AcDbCircle
 10
9195.7773026767
 20
6674.2964261729
 30
0.0
 40
28.99955725844023
100
AcDbArc
 50
307.0117794194
 51
307.4606042268
  0
CIRCLE
  5
1A5
330
1F
100
AcDbEntity
  8
0
  6
Continuous
 62
     7
370
    25
100
AcDbCircle
 10
9215.3572783386
 20
6651.6020543604
 30
0.0
 40
0.7447111979144796
  0
ARC
  5
1A6
330
1F
100
AcDbEntity
  8
0
  6
Continuous
 62
     7
370
    25
100
AcDbCircle
 10
9215.3625701833
 20
6652.0307368016
 30
0.0
 40
0.7500209122577055
100
AcDbArc
 50
0.4278607165
 51
179.5721392835
  0
LWPOLYLINE
  5
1A7
330
1F
100
AcDbEntity
  8
0
  6
Continuous
 62
     7
370
    25
100
AcDbPolyline
 90
        3
 70
   128
 43
0.0
 10
9213.2344330028
 20
6652.5651123434
 10
9213.0997094303
 20
6652.7259049899
 10
9213.041053013
 20
6652.8660371782
  0
LINE
  5
1A8
330
1F
100
AcDbEntity
  8
0
  6
Continuous
 62
     7
370
    25
100
AcDbLine
 10
9213.2344330028
 20
6652.1974879946
 30
0.0
 11
9213.2344330028
 21
6652.5651123434
 31
0.0
  0
LINE
  5
1A9
330
1F
100
AcDbEntity
  8
0
  6
Continuous
 62
     7
370
    25
100
AcDbLine
 10
9217.4907073638
 20
6652.1974879946
 30
0.0
 11
9217.4907073638
 21
6652.5651123434
 31
0.0
  0
LWPOLYLINE
  5
1AA
330
1F
100
AcDbEntity
  8
0
  6
Continuous
 62
     7
370
    25
100
AcDbPolyline
 90
        3
 70
   128
 43
0.0
 10
9217.6836967737
 20
6652.864629824
 10
9217.6254309363
 20
6652.7259049899
 10
9217.4907073638
 20
6652.5651123434
  0
LINE
  5
1AB
330
1F
100
AcDbEntity
  8
0
  6
Continuous
 62
     7
370
    25
100
AcDbLine
 10
9213.4152912038
 20
6652.030449011
 30
0.0
 11
9213.4152912038
 21
6652.4128633543
 31
0.0
  0
ARC
  5
1AC
330
1F
100
AcDbEntity
  8
0
  6
Continuous
 62
     7
370
    25
100
AcDbCircle
 10
9213.0989150679
 20
6652.0357083993
 30
0.0
 40
0.4922801229692273
100
AcDbArc
 50
0.0732305631
 51
50.0084208487
  0
ARC
  5
1AD
330
1F
100
AcDbEntity
  8
0
  6
Continuous
 62
     7
370
    25
100
AcDbCircle
 10
9217.6262252987
 20
6652.0357083993
 30
0.0
 40
0.4922801229723138
100
AcDbArc
 50
129.9915791516
 51
179.9267694369
  0
LINE
  5
1AE
330
1F
100
AcDbEntity
  8
0
  6
Continuous
 62
     7
370
    25
100
AcDbLine
 10
9217.3098491627
 20
6652.4128633543
 30
0.0
 11
9217.3098491627
 21
6652.030449011
 31
0.0
  0
LINE
  5
1AF
330
1F
100
AcDbEntity
  8
0
  6
Continuous
 62
     7
370
    25
100
AcDbLine
 10
9213.4152912038
 20
6652.4128633543
 30
0.0
 11
9213.2344330028
 21
6652.5651123434
 31
0.0
  0
LINE
  5
1B0
330
1F
100
AcDbEntity
  8
0
  6
Continuous
 62
     7
370
    25
100
AcDbLine
 10
9217.4907073638
 20
6652.5651123434
 30
0.0
 11
9217.3098491627
 21
6652.4128633543
 31
0.0
  0
LINE
  5
1B1
330
1F
100
AcDbEntity
  8
0
  6
Continuous
 62
     7
370
    25
100
AcDbLine
 10
9216.0064807915
 20
6649.7979249571
 30
0.0
 11
9216.0064807915
 21
6650.1803393003
 31
0.0
  0
ARC
  5
1B2
330
1F
100
AcDbEntity
  8
0
  6
Continuous
 62
     7
370
    25
100
AcDbCircle
 10
9216.497765722
 20
6650.0856483968
 30
0.0
 40
0.5003271431224151
100
AcDbArc
 50
70.358991683
 51
169.0905161756
  0
LINE
  5
1B3
330
1F
100
AcDbEntity
  8
0
  6
Continuous
 62
     7
370
    25
100
AcDbLine
 10
9216.6659385546
 20
6650.5568650652
 30
0.0
 11
9216.6659385546
 21
6650.1744507219
 31
0.0
  0
LINE
  5
1B4
330
1F
100
AcDbEntity
  8
0
  6
Continuous
 62
     7
370
    25
100
AcDbLine
 10
9214.059201812
 20
6650.1744507219
 30
0.0
 11
9214.059201812
 21
6650.5568650652
 31
0.0
  0
ARC
  5
1B5
330
1F
100
AcDbEntity
  8
0
  6
Continuous
 62
     7
370
    25
100
AcDbCircle
 10
9214.2273746446
 20
6650.0856483968
 30
0.0
 40
0.5003271431237047
100
AcDbArc
 50
10.9094838244
 51
109.6410083168
  0
LINE
  5
1B6
330
1F
100
AcDbEntity
  8
0
  6
Continuous
 62
     7
370
    25
100
AcDbLine
 10
9214.7186595751
 20
6650.1803393003
 30
0.0
 11
9214.7186595751
 21
6649.7979249571
 31
0.0
  0
LINE
  5
1B7
330
1F
100
AcDbEntity
  8
0
  6
Continuous
 62
     7
370
    25
100
AcDbLine
 10
9216.8896942255
 20
6650.110470289
 30
0.0
 11
9216.8896942255
 21
6650.4780946378
 31
0.0
  0
ARC
  5
1B8
330
1F
100
AcDbEntity
  8
0
  6
Continuous
 62
     7
370
    25
100
AcDbCircle
 10
9217.0950580691
 20
6651.054999806
 30
0.0
 40
0.6123674398064599
100
AcDbArc
 50
250.405539467
 51
341.5910971724
  0
ARC
  5
1B9
330
1F
100
AcDbEntity
  8
0
  6
Continuous
 62
     7
370
    25
100
AcDbCircle
 10
9213.629796288
 20
6651.0544094275
 30
0.0
 40
0.6119073449800851
100
AcDbArc
 50
198.3165637955
 51
289.6382288046
  0
LINE
  5
1BA
330
1F
100
AcDbEntity
  8
0
  6
Continuous
 62
     7
370
    25
100
AcDbLine
 10
9213.8354461411
 20
6650.110470289
 30
0.0
 11
9213.8354461411
 21
6650.4780946378
 31
0.0
  0
LINE
  5
1BB
330
1F
100
AcDbEntity
  8
0
  6
Continuous
 62
     7
370
    25
100
AcDbLine
 10
9214.059201812
 20
6650.5568650652
 30
0.0
 11
9213.8354461411
 21
6650.4780946378
 31
0.0
  0
LINE
  5
1BC
330
1F
100
AcDbEntity
  8
0
  6
Continuous
 62
     7
370
    25
100
AcDbLine
 10
9216.8896942255
 20
6650.4780946378
 30
0.0
 11
9216.6659385546
 21
6650.5568650652
 31
0.0
  0
LINE
  5
1BD
330
1F
100
AcDbEntity
  8
0
  6
Continuous
 62
     7
370
    25
100
AcDbLine
 10
9215.9635833216
 20
6649.581695535
 30
0.0
 11
9215.9635833216
 21
6649.9493198838
 31
0.0
  0
LINE
  5
1BE
330
1F
100
AcDbEntity
  8
0
  6
Continuous
 62
     7
370
    25
100
AcDbLine
 10
9216.0064807915
 20
6650.1803393003
 30
0.0
 11
9215.9635833216
 21
6649.9493198838
 31
0.0
  0
LINE
  5
1BF
330
1F
100
AcDbEntity
  8
0
  6
Continuous
 62
     7
370
    25
100
AcDbLine
 10
9214.761557045
 20
6649.581695535
 30
0.0
 11
9214.761557045
 21
6649.9493198838
 31
0.0
  0
LINE
  5
1C0
330
1F
100
AcDbEntity
  8
0
  6
Continuous
 62
     7
370
    25
100
AcDbLine
 10
9214.761557045
 20
6649.9493198838
 30
0.0
 11
9214.7186595751
 21
6650.1803393003
 31
0.0
  0
ARC
  5
1C1
330
1F
100
AcDbEntity
  8
0
  6
Continuous
 62
     7
370
    25
100
AcDbCircle
 10
9215.3625701833
 20
6650.0654411007
 30
0.0
 40
0.6121281968807297
100
AcDbArc
 50
190.9353245365
 51
349.0646754636
  0
ARC
  5
1C2
330
1F
100
AcDbEntity
  8
0
  6
Continuous
 62
     7
370
    25
100
AcDbCircle
 10
9215.3625701833
 20
6652.0723548248
 30
0.0
 40
4.500161736063713
100
AcDbArc
 50
0.4857673311
 51
179.5142326689
  0
LINE
  5
1C3
330
1F
100
AcDbEntity
  8
0
  6
Continuous
 62
     7
370
    25
100
AcDbLine
 10
9394.3625701833
 20
6841.4918193902
 30
0.0
 11
9394.3625701833
 21
6841.788500296
 31
0.0
  0
LINE
  5
1C4
330
1F
100
AcDbEntity
  8
0
  6
Continuous
 62
     7
370
    25
100
AcDbLine
 10
9394.3625701833
 20
6841.4918193902
 30
0.0
 11
9196.3625701833
 21
6841.4918193902
 31
0.0
  0
LINE
  5
1C5
330
1F
100
AcDbEntity
  8
0
  6
Continuous
 62
     7
370
    25
100
AcDbLine
 10
9196.3625701833
 20
6841.4918193902
 30
0.0
 11
9196.3625701833
 21
6841.788500296
 31
0.0
  0
LINE
  5
1C6
330
1F
100
AcDbEntity
  8
0
  6
Continuous
 62
     7
370
    25
100
AcDbLine
 10
9394.3625701833
 20
6841.788500296
 30
0.0
 11
9196.3625701833
 21
6841.788500296
 31
0.0
  0
LINE
  5
1C7
330
1F
100
AcDbEntity
  8
0
  6
Continuous
 62
     7
370
    25
100
AcDbLine
 10
9394.3625701833
 20
6645.6824215222
 30
0.0
 11
9394.3625701833
 21
6841.4918193902
 31
0.0
  0
LINE
  5
1C8
330
1F
100
AcDbEntity
  8
0
  6
Continuous
 62
     7
370
    25
100
AcDbLine
 10
9196.3625701833
 20
6645.6824215222
 30
0.0
 11
9394.3625701833
 21
6645.6824215222
 31
0.0
  0
LINE
  5
1C9
330
1F
100
AcDbEntity
  8
0
  6
Continuous
 62
     7
370
    25
100
AcDbLine
 10
9196.3625701833
 20
6841.4918193902
 30
0.0
 11
9196.3625701833
 21
6645.6824215222
 31
0.0
  0
ARC
  5
1CA
330
1F
100
AcDbEntity
  8
0
  6
Continuous
 62
     7
370
    25
100
AcDbCircle
 10
9187.3200012216
 20
6892.8206353943
 30
0.0
 40
363.0664375455452
100
AcDbArc
 50
359.750638275
 51
0.6571500691
  0
SPLINE
  5
1CB
330
1F
100
AcDbEntity
  8
0
  6
Continuous
 62
     7
370
    25
100
AcDbSpline
210
0.0
220
0.0
230
1.0
 70
    24
 71
     3
 72
    27
 73
    23
 74
     0
 42
0.00000001
 43
0.00000001
 40
0.0
 40
0.0
 40
0.0
 40
0.0
 40
0.0312965396079309
 40
0.0625931318013629
 40
0.1163311421859028
 40
0.1702613912116291
 40
0.2241916050697343
 40
0.2779295673268673
 40
0.3316955604285612
 40
0.3856538351053597
 40
0.4396117798762529
 40
0.4933773214968813
 40
0.5471074015058626
 40
0.6010292885683053
 40
0.6549513896423471
 40
0.708681762526907
 40
0.7624314769573273
 40
0.8163734411282518
 40
0.8703155985695746
 40
0.9240655774930179
 40
0.9778388701864618
 40
1.0
 40
1.0
 40
1.0
 40
1.0
 10
9550.362558719002
 20
6896.984710053905
 30
0.0
 10
9553.208417643611
 20
6896.984710053905
 30
0.0
 10
9558.900140274542
 20
6896.984710053905
 30
0.0
 10
9569.449857821175
 20
6896.984710053905
 30
0.0
 10
9581.969032855588
 20
6896.984710053905
 30
0.0
 10
9596.294309062554
 20
6896.984710053905
 30
0.0
 10
9610.292706305214
 20
6896.984710053905
 30
0.0
 10
9623.849403057382
 20
6896.984710053905
 30
0.0
 10
9636.867790575601
 20
6896.984710053905
 30
0.0
 10
9649.284540756615
 20
6896.984710053905
 30
0.0
 10
9661.00160679042
 20
6896.984710053905
 30
0.0
 10
9671.915403147215
 20
6896.984710053905
 30
0.0
 10
9681.935675504346
 20
6896.984710053905
 30
0.0
 10
9691.028530572714
 20
6896.984710053905
 30
0.0
 10
9699.130397165029
 20
6896.984710053905
 30
0.0
 10
9706.168888542568
 20
6896.984710053905
 30
0.0
 10
9712.070167909067
 20
6896.984710053905
 30
0.0
 10
9716.822291978588
 20
6896.984710053905
 30
0.0
 10
9720.421445125885
 20
6896.984710053905
 30
0.0
 10
9722.734371351245
 20
6896.984710053905
 30
0.0
 10
9723.80483009713
 20
6896.984710053905
 30
0.0
 10
9723.675771136033
 20
6896.984710053905
 30
0.0
 10
9723.63810584148
 20
6896.984710053905
 30
0.0
  0
LINE
  5
1CC
330
1F
100
AcDbEntity
  8
0
  6
Continuous
 62
     7
370
    25
100
AcDbLine
 10
9395.3625778288
 20
6842.480755743
 30
0.0
 11
9395.3625778288
 21
6644.6934851694
 31
0.0
  0
LINE
  5
1CD
330
1F
100
AcDbEntity
  8
0
  6
Continuous
 62
     7
370
    25
100
AcDbLine
 10
9195.3625778273
 20
6842.480755743
 30
0.0
 11
9395.3625778288
 21
6842.480755743
 31
0.0
  0
LINE
  5
1CE
330
1F
100
AcDbEntity
  8
0
  6
Continuous
 62
     7
370
    25
100
AcDbLine
 10
9195.3625778273
 20
6644.6934851694
 30
0.0
 11
9195.3625778273
 21
6842.480755743
 31
0.0
  0
LINE
  5
1CF
330
1F
100
AcDbEntity
  8
0
  6
Continuous
 62
     7
370
    25
100
AcDbLine
 10
9395.3625778288
 20
6644.6934851694
 30
0.0
 11
9195.3625778273
 21
6644.6934851694
 31
0.0
  0
LINE
  5
1D0
330
1F
100
AcDbEntity
  8
0
  6
Continuous
 62
     7
370
    25
100
AcDbLine
 10
9155.3625587169
 20
6501.2430077893
 30
0.0
 11
9500.3625616447
 21
6501.2430077893
 31
0.0
  0
LINE
  5
1D1
330
1F
100
AcDbEntity
  8
0
  6
Continuous
 62
     7
370
    25
100
AcDbLine
 10
9155.3625587169
 20
6891.2430077893
 30
0.0
 11
9155.3625587169
 21
6501.2430077893
 31
0.0
  0
SPLINE
  5
1D2
330
1F
100
AcDbEntity
  8
0
  6
Continuous
 62
     7
370
    25
100
AcDbSpline
210
0.0
220
0.0
230
1.0
 70
     8
 71
     3
 72
    16
 73
    12
 74
     0
 42
0.00000001
 43
0.00000001
 40
0.0
 40
0.0
 40
0.0
 40
0.0
 40
0.0078124999999998
 40
0.0078124999999998
 40
0.0156249999999995
 40
0.0312499999999994
 40
0.0624999999999993
 40
0.1249999999999994
 40
0.2499999999999997
 40
0.4999999999999998
 40
1.0
 40
1.0
 40
1.0
 40
1.0
 10
9550.38300026149
 20
6891.240508758233
 30
0.0
 10
9549.354301283754
 20
6891.243990501725
 30
0.0
 10
9548.325602177489
 20
6891.243007789254
 30
0.0
 10
9546.268204044187
 20
6891.243007789254
 30
0.0
 10
9543.182106844235
 20
6891.243007789254
 30
0.0
 10
9535.98121337768
 20
6891.243007789254
 30
0.0
 10
9521.57942644457
 20
6891.243007789254
 30
0.0
 10
9492.775852578352
 20
6891.243007789254
 30
0.0
 10
9435.168704845913
 20
6891.243007789254
 30
0.0
 10
9319.954409381038
 20
6891.243007789254
 30
0.0
 10
9221.199298982574
 20
6891.243007789254
 30
0.0
 10
9155.36255871693
 20
6891.243007789254
 30
0.0
  0
LINE
  5
1D3
330
1F
100
AcDbEntity
  8
0
  6
Continuous
 62
     7
370
    25
100
AcDbLine
 10
9155.3625587169
 20
6891.2430077893
 30
0.0
 11
9155.3625587169
 21
6896.9847100539
 31
0.0
  0
LINE
  5
1D4
330
1F
100
AcDbEntity
  8
0
  6
Continuous
 62
     7
370
    25
100
AcDbLine
 10
9155.3625587169
 20
6896.9847100539
 30
0.0
 11
9550.362558719
 21
6896.9847100539
 31
0.0
  0
ARC
  5
1D5
330
1F
100
AcDbEntity
  8
0
  6
Continuous
 62
     7
370
    25
100
AcDbCircle
 10
9155.3625587169
 20
6891.9847100539
 30
0.0
 40
5.0
100
AcDbArc
 50
90.0
 51
180.0
  0
LWPOLYLINE
  5
1D6
330
1F
100
AcDbEntity
  8
0
  6
Continuous
 62
     7
370
    25
100
AcDbPolyline
 90
        9
 70
   128
 43
0.0
 10
9150.3625587169
 20
6891.9847100539
 10
9150.4586323149
 20
6891.8400111203
 10
9150.7431610544
 20
6891.7008728855
 10
9151.2052106554
 20
6891.5726423539
 10
9151.827024811
 20
6891.4602473529
 10
9152.5847075518
 20
6891.3680071595
 10
9153.4491415551
 20
6891.2994665124
 10
9154.3871071068
 20
6891.2572593903
 10
9155.3625587169
 20
6891.2430077893
  0
LINE
  5
1D7
330
1F
100
AcDbEntity
  8
0
  6
Continuous
 62
     7
370
    25
100
AcDbLine
 10
9150.3625587169
 20
6501.9847100539
 30
0.0
 11
9150.3625587169
 21
6891.9847100539
 31
0.0
  0
LWPOLYLINE
  5
1D8
330
1F
100
AcDbEntity
  8
0
  6
Continuous
 62
     7
370
    25
100
AcDbPolyline
 90
        9
 70
   128
 43
0.0
 10
9150.3625587169
 20
6501.9847100539
 10
9150.4586323149
 20
6501.8400111203
 10
9150.7431610544
 20
6501.7008728855
 10
9151.2052106554
 20
6501.5726423539
 10
9151.827024811
 20
6501.4602473529
 10
9152.5847075518
 20
6501.3680071595
 10
9153.4491415551
 20
6501.2994665124
 10
9154.3871071068
 20
6501.2572593903
 10
9155.3625587169
 20
6501.2430077893
  0
LINE
  5
1D9
330
1F
100
AcDbEntity
  8
0
  6
Continuous
 62
     7
370
    25
100
AcDbLine
 10
9395.3625701848
 20
6644.9901660752
 30
0.0
 11
9395.3625778288
 21
6644.6934851694
 31
0.0
  0
LINE
  5
1DA
330
1F
100
AcDbEntity
  8
0
  6
Continuous
 62
     7
370
    25
100
AcDbLine
 10
9395.3625701848
 20
6842.480755743
 30
0.0
 11
9395.3625701848
 21
6644.9901660752
 31
0.0
  0
LINE
  5
1DB
330
1F
100
AcDbEntity
  8
0
  6
Continuous
 62
     7
370
    25
100
AcDbLine
 10
9395.3625701848
 20
6644.9901660752
 30
0.0
 11
9195.3625701833
 21
6644.9901660752
 31
0.0
  0
SPLINE
  5
1DC
330
1F
100
AcDbEntity
  8
0
  6
Continuous
 62
     7
370
    25
100
AcDbSpline
210
0.0
220
0.0
230
1.0
 70
    24
 71
     3
 72
    26
 73
    22
 74
     0
 42
0.00000001
 43
0.00000001
 40
0.0
 40
0.0
 40
0.0
 40
0.0
 40
0.0325140585507998
 40
0.0861746490697666
 40
0.1396440595584598
 40
0.1930918301692258
 40
0.2467304347543014
 40
0.3003689657806609
 40
0.3538166357259161
 40
0.4072399126420641
 40
0.4608539553634988
 40
0.5144681582190512
 40
0.5678916542795273
 40
0.6218282140370858
 40
0.6759612677243414
 40
0.7300943130800399
 40
0.7840308614349945
 40
0.8427781092580641
 40
0.9016521705892777
 40
0.9603994253070286
 40
1.0
 40
1.0
 40
1.0
 40
1.0
 10
9616.444683238075
 20
6496.984710053905
 30
0.0
 10
9616.452727030071
 20
6496.984710053905
 30
0.0
 10
9616.47404614505
 20
6496.984710053905
 30
0.0
 10
9615.596621464323
 20
6496.984710053905
 30
0.0
 10
9613.908447419326
 20
6496.984710053905
 30
0.0
 10
9611.361895121201
 20
6496.984710053905
 30
0.0
 10
9608.04117236117
 20
6496.984710053905
 30
0.0
 10
9603.966462859269
 20
6496.984710053905
 30
0.0
 10
9599.168932660394
 20
6496.984710053905
 30
0.0
 10
9593.65655067713
 20
6496.984710053905
 30
0.0
 10
9587.483065136996
 20
6496.984710053905
 30
0.0
 10
9580.702592938102
 20
6496.984710053905
 30
0.0
 10
9573.342187345263
 20
6496.984710053905
 30
0.0
 10
9565.424535335045
 20
6496.984710053905
 30
0.0
 10
9557.007736357862
 20
6496.984710053905
 30
0.0
 10
9548.189913403081
 20
6496.984710053905
 30
0.0
 10
9538.768911891792
 20
6496.984710053905
 30
0.0
 10
9528.767371760867
 20
6496.984710053905
 30
0.0
 10
9518.250291539307
 20
6496.984710053905
 30
0.0
 10
9508.740908148142
 20
6496.984710053905
 30
0.0
 10
9502.7677169538
 20
6496.984710053905
 30
0.0
 10
9500.362561644686
 20
6496.984710053905
 30
0.0
  0
LINE
  5
1DD
330
1F
100
AcDbEntity
  8
0
  6
Continuous
 62
     7
370
    25
100
AcDbLine
 10
9500.3625616447
 20
6496.9847100539
 30
0.0
 11
9500.3625616447
 21
6501.2430077893
 31
0.0
  0
LINE
  5
1DE
330
1F
100
AcDbEntity
  8
0
  6
Continuous
 62
     7
370
    25
100
AcDbLine
 10
9155.3625587169
 20
6496.9847100539
 30
0.0
 11
9155.3625587169
 21
6501.2430077893
 31
0.0
  0
LINE
  5
1DF
330
1F
100
AcDbEntity
  8
0
  6
Continuous
 62
     7
370
    25
100
AcDbLine
 10
9500.3625616447
 20
6496.9847100539
 30
0.0
 11
9155.3625587169
 21
6496.9847100539
 31
0.0
  0
ARC
  5
1E0
330
1F
100
AcDbEntity
  8
0
  6
Continuous
 62
     7
370
    25
100
AcDbCircle
 10
9155.3625587169
 20
6501.9847100539
 30
0.0
 40
5.0
100
AcDbArc
 50
180.0
 51
270.0
  0
SPLINE
  5
1E1
330
1F
100
AcDbEntity
  8
0
  6
Continuous
 62
     8
370
    25
100
AcDbSpline
210
0.0
220
0.0
230
1.0
 70
     8
 71
     3
 72
    27
 73
    23
 74
     0
 42
0.00000001
 43
0.00000001
 40
0.0
 40
0.0
 40
0.0
 40
0.0
 40
0.0221567294491733
 40
0.0759151733564176
 40
0.1296526306080009
 40
0.1835819215224805
 40
0.2375110099262616
 40
0.2912481900408858
 40
0.3449716393152625
 40
0.3988865817660061
 40
0.4528012951823628
 40
0.5065244310236324
 40
0.5602934821184415
 40
0.6142548724311427
 40
0.6682165546364673
 40
0.7219860051900954
 40
0.7757390447636954
 40
0.8296844525082633
 40
0.8836298657531712
 40
0.9373829128540769
 40
0.9732716813555553
 40
1.0
 40
1.0
 40
1.0
 40
1.0
 10
9728.454769037939
 20
6890.659445114003
 30
0.0
 10
9728.493452990455
 20
6890.659326673865
 30
0.0
 10
9728.625995068383
 20
6890.658920864708
 30
0.0
 10
9727.526801280634
 20
6890.662334818526
 30
0.0
 10
9725.151777207797
 20
6890.669707627744
 30
0.0
 10
9721.455844474436
 20
6890.681232166316
 30
0.0
 10
9716.575785552195
 20
6890.696494141747
 30
0.0
 10
9710.51526469144
 20
6890.715510570707
 30
0.0
 10
9703.28631782671
 20
6890.738247225002
 30
0.0
 10
9694.964495393431
 20
6890.764532898744
 30
0.0
 10
9685.624312320397
 20
6890.794215110578
 30
0.0
 10
9675.330309547244
 20
6890.827198366903
 30
0.0
 10
9664.116990415572
 20
6890.863376870666
 30
0.0
 10
9652.076809679711
 20
6890.902401271395
 30
0.0
 10
9639.316864171598
 20
6890.943998336242
 30
0.0
 10
9625.936874637255
 20
6890.987859405341
 30
0.0
 10
9612.001702416339
 20
6891.033915940389
 30
0.0
 10
9597.610619132169
 20
6891.081842041242
 30
0.0
 10
9582.882546204555
 20
6891.131135291288
 30
0.0
 10
9569.586648145825
 20
6891.175796306057
 30
0.0
 10
9558.73416375965
 20
6891.212287724158
 30
0.0
 10
9552.881310690056
 20
6891.232066233577
 30
0.0
 10
9550.38300026149
 20
6891.240508758233
 30
0.0
  0
SPLINE
  5
1E2
330
1F
100
AcDbEntity
  8
0
  6
Continuous
 62
     8
370
    25
100
AcDbSpline
210
0.0
220
0.0
230
1.0
 70
     8
 71
     3
 72
    26
 73
    22
 74
     0
 42
0.00000001
 43
0.00000001
 40
0.0
 40
0.0
 40
0.0
 40
0.0
 40
0.0532276729252579
 40
0.1064479578252466
 40
0.1612131733563429
 40
0.2159785761254278
 40
0.2692421515678203
 40
0.3225057896244599
 40
0.377346930065197
 40
0.4321879912616451
 40
0.4849432718453824
 40
0.5376983992038888
 40
0.591982741524226
 40
0.6462669265936472
 40
0.6990343031966053
 40
0.751801666061179
 40
0.8060978517441415
 40
0.8603941891494493
 40
0.9131779504560333
 40
0.9659619016282418
 40
1.0
 40
1.0
 40
1.0
 40
1.0
 10
9500.362561644686
 20
6501.243007789253
 30
0.0
 10
9503.731543829734
 20
6501.233343317264
 30
0.0
 10
9510.469040583564
 20
6501.21401571472
 30
0.0
 10
9520.607948538045
 20
6501.139640892581
 30
0.0
 10
9530.69721267517
 20
6501.096532086164
 30
0.0
 10
9540.570500858303
 20
6501.046376557226
 30
0.0
 10
9550.063703036178
 20
6501.00054282666
 30
0.0
 10
9559.213022038255
 20
6500.956005299693
 30
0.0
 10
9568.025262469462
 20
6500.913438633927
 30
0.0
 10
9576.317527477926
 20
6500.873477955659
 30
0.0
 10
9583.96122104406
 20
6500.836804399552
 30
0.0
 10
9591.002131505968
 20
6500.803094286151
 30
0.0
 10
9597.464224433967
 20
6500.772280119115
 30
0.0
 10
9603.231549606417
 20
6500.744818831405
 30
0.0
 10
9608.216147932524
 20
6500.721163151922
 30
0.0
 10
9612.458210220915
 20
6500.701059068452
 30
0.0
 10
9615.937607677155
 20
6500.684590482065
 30
0.0
 10
9618.59913023508
 20
6500.672023360399
 30
0.0
 10
9620.362893184925
 20
6500.663692057399
 30
0.0
 10
9621.296318393792
 20
6500.659291323223
 30
0.0
 10
9621.276955772762
 20
6500.659382329502
 30
0.0
 10
9621.269364765605
 20
6500.659418008005
 30
0.0
  0
SPLINE
  5
1E3
330
1F
100
AcDbEntity
  8
0
  6
Continuous
 62
     7
370
    25
100
AcDbSpline
210
0.0
220
0.0
230
1.0
 70
     8
 71
     3
 72
    12
 73
     8
 74
     0
 42
0.00000001
 43
0.00000001
 40
0.0
 40
0.0
 40
0.0
 40
0.0
 40
0.568916686474933
 40
0.8804161545429148
 40
0.95829102155991
 40
0.9875649981874238
 40
1.0
 40
1.0
 40
1.0
 40
1.0
 10
8509.02709091009
 20
6194.408964361711
 30
0.0
 10
8509.048273903441
 20
6119.497843727783
 30
0.0
 10
8509.081055240313
 20
6003.570569437988
 30
0.0
 10
8508.95108417107
 20
5877.387453525083
 30
0.0
 10
8509.075224589336
 20
5822.263842869298
 30
0.0
 10
8508.97853689578
 20
5806.516745898371
 30
0.0
 10
8509.091296713646
 20
5801.025786850995
 30
0.0
 10
8509.124914620199
 20
5799.388727199558
 30
0.0
  0
ARC
  5
1E4
330
1F
100
AcDbEntity
  8
0
  6
Continuous
 62
     7
370
    25
100
AcDbCircle
 10
8514.0270909101
 20
6194.4089643617
 30
0.0
 40
5.0
100
AcDbArc
 50
90.0
 51
180.0
  0
SPLINE
  5
1E5
330
1F
100
AcDbEntity
  8
0
  6
Continuous
 62
     7
370
    25
100
AcDbSpline
210
0.0
220
0.0
230
1.0
 70
     8
 71
     3
 72
    11
 73
     7
 74
     0
 42
0.00000001
 43
0.00000001
 40
0.0
 40
0.0
 40
0.0
 40
0.0
 40
0.0204794154731015
 40
0.0494333006626309
 40
0.1704760860692457
 40
1.0
 40
1.0
 40
1.0
 40
1.0
 10
8867.344147679743
 20
5799.388777288052
 30
0.0
 10
8867.372758405745
 20
5802.085248344349
 30
0.0
 10
8867.441819098542
 20
5808.594001713267
 30
0.0
 10
8867.37754490612
 20
5831.041469246183
 30
0.0
 10
8867.52555850971
 20
5960.017716012714
 30
0.0
 10
8867.46663608904
 20
6085.182420346286
 30
0.0
 10
8867.415216702011
 20
6194.408964361711
 30
0.0
  0
ARC
  5
1E6
330
1F
100
AcDbEntity
  8
0
  6
Continuous
 62
     7
370
    25
100
AcDbCircle
 10
8862.415216702
 20
6194.4089643617
 30
0.0
 40
5.0
100
AcDbArc
 50
0.0
 51
90.0
  0
SPLINE
  5
1E7
330
1F
100
AcDbEntity
  8
0
  6
Continuous
 62
     7
370
    25
100
AcDbSpline
210
0.0
220
0.0
230
1.0
 70
     8
 71
     3
 72
    83
 73
    79
 74
     0
 42
0.00000001
 43
0.00000001
 40
0.0
 40
0.0
 40
0.0
 40
0.0
 40
0.0084774961897548
 40
0.0218653744025029
 40
0.0338807930716266
 40
0.0467889666811434
 40
0.0590067259507905
 40
0.072382554171329
 40
0.0857619693762039
 40
0.0991474323489827
 40
0.1125398345556372
 40
0.1259403553914222
 40
0.1393500786988646
 40
0.1527700916647858
 40
0.1661945862807435
 40
0.1795530286978692
 40
0.1929264715305526
 40
0.2063256441379195
 40
0.2197422689445802
 40
0.2331676340378732
 40
0.2465901511648133
 40
0.2600006396633009
 40
0.2733910769176265
 40
0.286742481648913
 40
0.3000858286945899
 40
0.313480065193159
 40
0.3269092874674926
 40
0.3403568819956975
 40
0.3538029859653
 40
0.3672274324606595
 40
0.3806136138576771
 40
0.3939516216316181
 40
0.4072675796862983
 40
0.4206313558110645
 40
0.4340534713896784
 40
0.4475118119438363
 40
0.4609833669856057
 40
0.474437703610144
 40
0.487850910725057
 40
0.5012011769244917
 40
0.5144919461690672
 40
0.5277929925056418
 40
0.5411783317636741
 40
0.5546227138092522
 40
0.568099667115908
 40
0.5815795824958648
 40
0.5950276967737527
 40
0.6084171063284133
 40
0.6217310036418232
 40
0.6350088931067482
 40
0.6483429588869905
 40
0.6617563479161481
 40
0.6752209651795379
 40
0.6887074382038588
 40
0.702178868562714
 40
0.715602136378413
 40
0.7289486543035876
 40
0.7422204920119053
 40
0.7553217838417248
 40
0.7685150094772666
 40
0.7818045704403764
 40
0.7951800473498534
 40
0.8086291476773175
 40
0.8221378912689273
 40
0.8356909124153428
 40
0.849271812134332
 40
0.8628635513922458
 40
0.8764435755522889
 40
0.8899944917081659
 40
0.9035002008352166
 40
0.9169458169466246
 40
0.9303180274176294
 40
0.9436054018669708
 40
0.9567986415890755
 40
0.9684290526677203
 40
0.9806643902700564
 40
0.9937796768176089
 40
1.0
 40
1.0
 40
1.0
 40
1.0
 10
8509.119490538089
 20
5799.388630515269
 30
0.0
 10
8509.140267032955
 20
5797.802585826791
 30
0.0
 10
8509.193854298452
 20
5793.711818912077
 30
0.0
 10
8509.5091946701
 20
5787.378925661767
 30
0.0
 10
8510.091591199918
 20
5780.233024288897
 30
0.0
 10
8510.994186687714
 20
5773.340053711528
 30
0.0
 10
8512.212870511285
 20
5766.238826577769
 30
0.0
 10
8513.733244718735
 20
5759.105103964063
 30
0.0
 10
8515.606153523766
 20
5751.829956372365
 30
0.0
 10
8517.783508848723
 20
5744.636781490747
 30
0.0
 10
8520.26215568603
 20
5737.537609622617
 30
0.0
 10
8523.038286440255
 20
5730.544514738543
 30
0.0
 10
8526.107695474608
 20
5723.669430374416
 30
0.0
 10
8529.464931076016
 20
5716.925206637543
 30
0.0
 10
8533.098056376677
 20
5710.336432931263
 30
0.0
 10
8537.001552650136
 20
5703.914377778691
 30
0.0
 10
8541.167838146042
 20
5697.665327125931
 30
0.0
 10
8545.59835739511
 20
5691.587267353621
 30
0.0
 10
8550.285342520647
 20
5685.692289778041
 30
0.0
 10
8555.217935853108
 20
5679.995447296606
 30
0.0
 10
8560.384287706544
 20
5674.51127573415
 30
0.0
 10
8565.77186702988
 20
5669.253623742212
 30
0.0
 10
8571.366110996625
 20
5664.236293225025
 30
0.0
 10
8577.15822653654
 20
5659.468512573568
 30
0.0
 10
8583.145826591192
 20
5654.947568630355
 30
0.0
 10
8589.328966461038
 20
5650.672314692724
 30
0.0
 10
8595.701628560071
 20
5646.648400975896
 30
0.0
 10
8602.245185486725
 20
5642.889270537044
 30
0.0
 10
8608.939490577097
 20
5639.407579027125
 30
0.0
 10
8615.763605297385
 20
5636.214744423427
 30
0.0
 10
8622.697463531305
 20
5633.319855029125
 30
0.0
 10
8629.728917351491
 20
5630.72891328602
 30
0.0
 10
8636.859596675067
 20
5628.438907338358
 30
0.0
 10
8644.094864101673
 20
5626.444622102565
 30
0.0
 10
8651.43291204002
 20
5624.747565278468
 30
0.0
 10
8658.855099410084
 20
5623.353884643338
 30
0.0
 10
8666.334939479233
 20
5622.270150788931
 30
0.0
 10
8673.84518423993
 20
5621.501148722124
 30
0.0
 10
8681.358469458708
 20
5621.049800027771
 30
0.0
 10
8688.85356159989
 20
5620.916954493323
 30
0.0
 10
8696.32648956382
 20
5621.103574565918
 30
0.0
 10
8703.791464906932
 20
5621.604287637945
 30
0.0
 10
8711.257660334562
 20
5622.418796768144
 30
0.0
 10
8718.716052017242
 20
5623.548136359418
 30
0.0
 10
8726.138369003173
 20
5624.990238138756
 30
0.0
 10
8733.494780364013
 20
5626.740800736389
 30
0.0
 10
8740.755666926703
 20
5628.793483440335
 30
0.0
 10
8747.894244167588
 20
5631.140264388199
 30
0.0
 10
8754.89668890582
 20
5633.777538292819
 30
0.0
 10
8761.771025286826
 20
5636.706215503084
 30
0.0
 10
8768.533707096221
 20
5639.927646703372
 30
0.0
 10
8775.18731320236
 20
5643.444145519598
 30
0.0
 10
8781.713612324485
 20
5647.248585085804
 30
0.0
 10
8788.08501845802
 20
5651.327296027895
 30
0.0
 10
8794.27424439325
 20
5655.664065550043
 30
0.0
 10
8800.25496439794
 20
5660.241174944323
 30
0.0
 10
8806.00889757871
 20
5665.042325537452
 30
0.0
 10
8811.50515768636
 20
5670.047506535435
 30
0.0
 10
8816.76024536979
 20
5675.264506261052
 30
0.0
 10
8821.7934107228
 20
5680.700387002436
 30
0.0
 10
8826.627805740654
 20
5686.38130745645
 30
0.0
 10
8831.25088383764
 20
5692.296353682956
 30
0.0
 10
8835.648433901408
 20
5698.431463376425
 30
0.0
 10
8839.806545706031
 20
5704.771078166407
 30
0.0
 10
8843.711776591224
 20
5711.298279829943
 30
0.0
 10
8847.35137284752
 20
5717.994928039193
 30
0.0
 10
8850.713028187009
 20
5724.840964549581
 30
0.0
 10
8853.785646029659
 20
5731.815388418507
 30
0.0
 10
8856.559544572736
 20
5738.896640928861
 30
0.0
 10
8859.026904972958
 20
5746.063874055473
 30
0.0
 10
8861.181190326668
 20
5753.296467702993
 30
0.0
 10
8863.017957583952
 20
5760.57408299175
 30
0.0
 10
8864.53174346524
 20
5767.87738383215
 30
0.0
 10
8865.683242190375
 20
5774.916506360057
 30
0.0
 10
8866.503456775501
 20
5781.803775356339
 30
0.0
 10
8867.011757761122
 20
5788.705557873474
 30
0.0
 10
8867.272962204546
 20
5794.608037290117
 30
0.0
 10
8867.315932361282
 20
5798.225500733818
 30
0.0
 10
8867.32975598856
 20
5799.389249487263
 30
0.0
  0
LWPOLYLINE
  5
1E8
330
1F
100
AcDbEntity
  8
0
  6
Continuous
 62
     7
370
    25
100
AcDbPolyline
 90
        6
 70
   128
 43
0.0
 10
8514.0270909101
 20
6194.4089643617
 10
8514.0270909101
 20
6184.4089643617
 10
8514.0270909101
 20
6144.4089643617
 10
8514.0270909101
 20
5984.4089643617
 10
8513.9322257133
 20
5891.9087667228
 10
8514.0285746707
 20
5799.4089643596
  0
LINE
  5
1E9
330
1F
100
AcDbEntity
  8
0
  6
Continuous
 62
     7
370
    25
100
AcDbLine
 10
8514.0270909101
 20
6199.4089643617
 30
0.0
 11
8514.0270909101
 21
6194.4089643617
 31
0.0
  0
CIRCLE
  5
1EA
330
1F
100
AcDbEntity
  8
0
  6
Continuous
 62
     7
370
    25
100
AcDbCircle
 10
8688.221153806
 20
5799.4089643617
 30
0.0
 40
156.0000000000009
  0
SPLINE
  5
1EB
330
1F
100
AcDbEntity
  8
0
  6
Continuous
 62
     7
370
    25
100
AcDbSpline
210
0.0
220
0.0
230
1.0
 70
     8
 71
     3
 72
   100
 73
    96
 74
     0
 42
0.00000001
 43
0.00000001
 40
0.0
 40
0.0
 40
0.0
 40
0.0
 40
0.0312499999999997
 40
0.0312499999999997
 40
0.0624999999999994
 40
0.0624999999999994
 40
0.0937499999999991
 40
0.0937499999999991
 40
0.1249999999999988
 40
0.1249999999999988
 40
0.1328124999999986
 40
0.1328124999999986
 40
0.1406249999999985
 40
0.1406249999999985
 40
0.1562499999999985
 40
0.1562499999999985
 40
0.1874999999999984
 40
0.1874999999999984
 40
0.2187499999999982
 40
0.2187499999999982
 40
0.2343749999999981
 40
0.2343749999999981
 40
0.242187499999998
 40
0.242187499999998
 40
0.2499999999999979
 40
0.2499999999999979
 40
0.2812499999999969
 40
0.2812499999999969
 40
0.3124999999999958
 40
0.3124999999999958
 40
0.3437499999999947
 40
0.3437499999999947
 40
0.3515624999999946
 40
0.3515624999999946
 40
0.3593749999999944
 40
0.3593749999999944
 40
0.3749999999999944
 40
0.3749999999999944
 40
0.4062499999999946
 40
0.4062499999999946
 40
0.4374999999999947
 40
0.4374999999999947
 40
0.4531249999999947
 40
0.4531249999999947
 40
0.4609374999999947
 40
0.4609374999999947
 40
0.4687499999999947
 40
0.4687499999999947
 40
0.4999999999999947
 40
0.4999999999999947
 40
0.5312499999999947
 40
0.5312499999999947
 40
0.5624999999999947
 40
0.5624999999999947
 40
0.5781249999999947
 40
0.5781249999999947
 40
0.5937499999999947
 40
0.5937499999999947
 40
0.6249999999999946
 40
0.6249999999999946
 40
0.6562499999999944
 40
0.6562499999999944
 40
0.6718749999999946
 40
0.6718749999999946
 40
0.6796874999999946
 40
0.6796874999999946
 40
0.6874999999999946
 40
0.6874999999999946
 40
0.7187499999999949
 40
0.7187499999999949
 40
0.7499999999999951
 40
0.7499999999999951
 40
0.7812499999999953
 40
0.7812499999999953
 40
0.7890624999999957
 40
0.7890624999999957
 40
0.7968749999999959
 40
0.7968749999999959
 40
0.8124999999999957
 40
0.8124999999999957
 40
0.843749999999996
 40
0.843749999999996
 40
0.8749999999999962
 40
0.8749999999999962
 40
0.8906249999999964
 40
0.8906249999999964
 40
0.8984374999999966
 40
0.8984374999999966
 40
0.9062499999999967
 40
0.9062499999999967
 40
0.9374999999999978
 40
0.9374999999999978
 40
0.968749999999999
 40
0.968749999999999
 40
1.0
 40
1.0
 40
1.0
 40
1.0
 10
8514.028574670676
 20
5799.40896435964
 30
0.0
 10
8514.052296823524
 20
5793.671208191558
 30
0.0
 10
8514.359466814009
 20
5787.947660284093
 30
0.0
 10
8515.537842973135
 20
5776.534138552019
 30
0.0
 10
8516.40292308212
 20
5770.904012458843
 30
0.0
 10
8518.668637895777
 20
5759.792521745889
 30
0.0
 10
8520.068636063577
 20
5754.310980314703
 30
0.0
 10
8523.397701094696
 20
5743.494857331504
 30
0.0
 10
8525.326958429896
 20
5738.160328687037
 30
0.0
 10
8528.078759637869
 20
5731.586673741206
 30
0.0
 10
8528.646136578696
 20
5730.276669495627
 30
0.0
 10
8529.815204854158
 20
5727.666192543963
 30
0.0
 10
8530.417706551854
 20
5726.364043786407
 30
0.0
 10
8532.271006905481
 20
5722.484993444503
 30
0.0
 10
8533.565225818957
 20
5719.939840153274
 30
0.0
 10
8537.620359887731
 20
5712.42452816032
 30
0.0
 10
8540.553406300138
 20
5707.574276265751
 30
0.0
 10
8546.872486115079
 20
5698.189323670411
 30
0.0
 10
8550.257780249089
 20
5693.654107994441
 30
0.0
 10
8555.676513412543
 20
5687.088680504935
 30
0.0
 10
8557.539700636937
 20
5684.939871112439
 30
0.0
 10
8560.42149318214
 20
5681.777269467598
 30
0.0
 10
8561.396602048948
 20
5680.733177541562
 30
0.0
 10
8563.376225498208
 20
5678.665477740641
 30
0.0
 10
8564.382027929812
 20
5677.640650348453
 30
0.0
 10
8569.459548654182
 20
5672.593496948364
 30
0.0
 10
8573.688582419854
 20
5668.787306809996
 30
0.0
 10
8582.468981072567
 20
5661.621767714097
 30
0.0
 10
8587.020503662598
 20
5658.262637377067
 30
0.0
 10
8596.447232152452
 20
5651.993092395597
 30
0.0
 10
8601.321913768206
 20
5649.081950946646
 30
0.0
 10
8607.621249691563
 20
5645.728575497537
 30
0.0
 10
8608.891450067109
 20
5645.072225103368
 30
0.0
 10
8611.452765415757
 20
5643.788517802931
 30
0.0
 10
8612.74391443275
 20
5643.161217881792
 30
0.0
 10
8616.627171999788
 20
5641.333376699881
 30
0.0
 10
8619.236248614052
 20
5640.18323497254
 30
0.0
 10
8627.123251118794
 20
5636.934882210919
 30
0.0
 10
8632.460591973955
 20
5635.037534335936
 30
0.0
 10
8643.290660077508
 20
5631.768150719465
 30
0.0
 10
8648.78340068919
 20
5630.396160155023
 30
0.0
 10
8657.141423732906
 20
5628.740178508395
 30
0.0
 10
8659.94727016487
 20
5628.255253152925
 30
0.0
 10
8664.186175685601
 20
5627.629744951657
 30
0.0
 10
8665.604170145822
 20
5627.438233372661
 30
0.0
 10
8668.45031516463
 20
5627.089544763478
 30
0.0
 10
8669.875153075285
 20
5626.932805617172
 30
0.0
 10
8676.988950384708
 20
5626.238448280173
 30
0.0
 10
8682.665902176659
 20
5625.965536813726
 30
0.0
 10
8693.992245693042
 20
5625.972584738241
 30
0.0
 10
8699.641638398647
 20
5626.252524446329
 30
0.0
 10
8710.913056854935
 20
5627.361400769765
 30
0.0
 10
8716.535085501855
 20
5628.190279284947
 30
0.0
 10
8724.946882983071
 20
5629.859793829617
 30
0.0
 10
8727.751955012978
 20
5630.489152586281
 30
0.0
 10
8733.29479898097
 20
5631.877029219537
 30
0.0
 10
8736.03944058787
 20
5632.636644161711
 30
0.0
 10
8744.194581228032
 20
5635.10870057393
 30
0.0
 10
8749.52656325036
 20
5637.013698418655
 30
0.0
 10
8759.982584494772
 20
5641.333656360602
 30
0.0
 10
8765.106358902469
 20
5643.74926589287
 30
0.0
 10
8772.634312821205
 20
5647.759445062028
 30
0.0
 10
8775.117290467908
 20
5649.16076888946
 30
0.0
 10
8778.801477314757
 20
5651.361537023427
 30
0.0
 10
8780.024498884419
 20
5652.112676011952
 30
0.0
 10
8782.44743683196
 20
5653.642307727574
 30
0.0
 10
8783.647042244216
 20
5654.420530297748
 30
0.0
 10
8789.586268518724
 20
5658.378092438237
 30
0.0
 10
8794.149547058581
 20
5661.756712030064
 30
0.0
 10
8802.911862688983
 20
5668.925571310743
 30
0.0
 10
8807.110997382555
 20
5672.715700700872
 30
0.0
 10
8815.142791966158
 20
5680.710103435576
 30
0.0
 10
8818.974865492686
 20
5684.915039414794
 30
0.0
 10
8823.529116142652
 20
5690.437727660594
 30
0.0
 10
8824.428970253599
 20
5691.556738717391
 30
0.0
 10
8826.195446798003
 20
5693.809686972813
 30
0.0
 10
8827.063122493048
 20
5694.944847534082
 30
0.0
 10
8829.619936264831
 20
5698.376123716565
 30
0.0
 10
8831.26290184208
 20
5700.698011055724
 30
0.0
 10
8836.009353708914
 20
5707.765506797838
 30
0.0
 10
8838.930238870378
 20
5712.613036145559
 30
0.0
 10
8844.292559843418
 20
5722.575705075462
 30
0.0
 10
8846.734229041434
 20
5727.690714390283
 30
0.0
 10
8850.029470623076
 20
5735.568220042218
 30
0.0
 10
8851.066412199958
 20
5738.228366730071
 30
0.0
 10
8852.527836417401
 20
5742.271047340419
 30
0.0
 10
8852.99895624582
 20
5743.626516323804
 30
0.0
 10
8853.904780372837
 20
5746.339941533232
 30
0.0
 10
8854.340149500445
 20
5747.699706336207
 30
0.0
 10
8856.43024856484
 20
5754.513622907004
 30
0.0
 10
8857.825631951446
 20
5760.012896944768
 30
0.0
 10
8860.07326076311
 20
5771.105942586189
 30
0.0
 10
8860.924836069416
 20
5776.699830780098
 30
0.0
 10
8862.083105053132
 20
5787.982408104836
 30
0.0
 10
8862.39001076382
 20
5793.671060345171
 30
0.0
 10
8862.413733014799
 20
5799.408982107319
 30
0.0
  0
LINE
  5
1EC
330
1F
100
AcDbEntity
  8
0
  6
Continuous
 62
     7
370
    25
100
AcDbLine
 10
8862.415216702
 20
6194.4089643617
 30
0.0
 11
8514.0270909101
 21
6194.4089643617
 31
0.0
  0
SPLINE
  5
1ED
330
1F
100
AcDbEntity
  8
0
  6
Continuous
 62
     7
370
    25
100
AcDbSpline
210
0.0
220
0.0
230
1.0
 70
     8
 71
     3
 72
    16
 73
    12
 74
     0
 42
0.00000001
 43
0.00000001
 40
0.0
 40
0.0
 40
0.0
 40
0.0
 40
0.0078125000000003
 40
0.0078125000000003
 40
0.0156250000000005
 40
0.0312500000000006
 40
0.0625000000000009
 40
0.1250000000000009
 40
0.2500000000000009
 40
0.5000000000000007
 40
1.0
 40
1.0
 40
1.0
 40
1.0
 10
8862.413733014799
 20
5799.408982107319
 30
0.0
 10
8862.41798573796
 20
5800.437627862921
 30
0.0
 10
8862.415216702011
 20
5801.466273670611
 30
0.0
 10
8862.415216702011
 20
5803.523565244911
 30
0.0
 10
8862.415216702011
 20
5806.609502606359
 30
0.0
 10
8862.415216702011
 20
5813.810023116405
 30
0.0
 10
8862.415216702011
 20
5828.211064136498
 30
0.0
 10
8862.415216702011
 20
5857.013146176683
 30
0.0
 10
8862.415216702011
 20
5914.617310257054
 30
0.0
 10
8862.415216702011
 20
6029.825638417795
 30
0.0
 10
8862.415216702011
 20
6128.575633984144
 30
0.0
 10
8862.415216702011
 20
6194.408964361711
 30
0.0
  0
LINE
  5
1EE
330
1F
100
AcDbEntity
  8
0
  6
Continuous
 62
     7
370
    25
100
AcDbLine
 10
8862.415216702
 20
6194.4089643617
 30
0.0
 11
8862.415216702
 21
6199.4089643617
 31
0.0
  0
LINE
  5
1EF
330
1F
100
AcDbEntity
  8
0
  6
Continuous
 62
     7
370
    25
100
AcDbLine
 10
8514.0270909101
 20
6199.4089643617
 30
0.0
 11
8862.415216702
 21
6199.4089643617
 31
0.0
  0
CIRCLE
  5
1F0
330
1F
100
AcDbEntity
  8
0
  6
Continuous
 62
     7
370
    25
100
AcDbCircle
 10
8688.221153806
 20
5799.4089643617
 30
0.0
 40
146.0
  0
CIRCLE
  5
1F1
330
1F
100
AcDbEntity
  8
0
  6
Continuous
 62
     7
370
    25
100
AcDbCircle
 10
8688.221153806
 20
5799.4089643617
 30
0.0
 40
41.16236220454812
  0
CIRCLE
  5
1F2
330
1F
100
AcDbEntity
  8
0
  6
Continuous
 62
     7
370
    25
100
AcDbCircle
 10
8688.221153806
 20
5799.4089643617
 30
0.0
 40
35.0
  0
LINE
  5
1F3
330
1F
100
AcDbEntity
  8
0
  6
Continuous
 62
     8
370
    25
100
AcDbLine
 10
8509.0270911707
 20
6194.4089643617
 30
0.0
 11
8514.0270909101
 21
6194.4089643617
 31
0.0
  0
LINE
  5
1F4
330
1F
100
AcDbEntity
  8
0
  6
Continuous
 62
     8
370
    25
100
AcDbLine
 10
8509.0286185157
 20
5799.3882925638
 30
0.0
 11
8514.0285746707
 21
5799.4089643596
 31
0.0
  0
LINE
  5
1F5
330
1F
100
AcDbEntity
  8
0
  6
Continuous
 62
     8
370
    25
100
AcDbLine
 10
8862.415216702
 20
6194.4089643617
 30
0.0
 11
8867.4152164278
 21
6194.4089643617
 31
0.0
  0
LINE
  5
1F6
330
1F
100
AcDbEntity
  8
0
  6
Continuous
 62
     8
370
    25
100
AcDbLine
 10
8862.4137330148
 20
5799.4089821073
 30
0.0
 11
8867.4136801199
 21
5799.38831086
 31
0.0
  0
ENDSEC
  0
SECTION
  2
OBJECTS
  0
DICTIONARY
  5
C
330
0
100
AcDbDictionary
281
     1
  3
ACAD_GROUP
350
D
  3
ACAD_LAYOUT
350
1A
  3
ACAD_MLINESTYLE
350
17
  3
ACAD_PLOTSETTINGS
350
19
  3
ACAD_PLOTSTYLENAME
350
E
  3
ACAD_SCALELIST
350
47
  3
DWGPROPS
350
1F7
  0
DICTIONARY
  5
D
102
{ACAD_REACTORS
330
C
102
}
330
C
100
AcDbDictionary
281
     1
  0
DICTIONARY
  5
1A
102
{ACAD_REACTORS
330
C
102
}
330
C
100
AcDbDictionary
281
     1
  3
Layout1
350
1E
  3
Layout2
350
26
  3
Model
350
22
  0
DICTIONARY
  5
17
102
{ACAD_REACTORS
330
C
102
}
330
C
100
AcDbDictionary
281
     1
  3
Standard
350
18
  0
DICTIONARY
  5
19
102
{ACAD_REACTORS
330
C
102
}
330
C
100
AcDbDictionary
281
     1
  0
ACDBDICTIONARYWDFLT
  5
E
102
{ACAD_REACTORS
330
C
102
}
330
C
100
AcDbDictionary
281
     1
  3
Normal
350
F
100
AcDbDictionaryWithDefault
340
F
  0
DICTIONARY
  5
47
102
{ACAD_REACTORS
330
C
102
}
330
C
100
AcDbDictionary
281
     1
  3
A0
350
48
  3
A1
350
49
  3
A2
350
4A
  3
A3
350
4B
  3
A4
350
4C
  3
A5
350
4D
  3
A6
350
4E
  3
A7
350
4F
  3
A8
350
50
  3
A9
350
51
  3
B0
350
52
  3
B1
350
53
  3
B2
350
54
  3
B3
350
55
  3
B4
350
56
  3
B5
350
57
  3
B6
350
58
  3
B7
350
59
  3
B8
350
5A
  3
B9
350
5B
  3
C0
350
5C
  3
C1
350
5D
  3
C2
350
5E
  3
C3
350
5F
  3
C4
350
60
  3
C5
350
61
  3
C6
350
62
  3
C7
350
63
  3
C8
350
64
  3
C9
350
65
  3
D0
350
66
  3
D1
350
67
  3
D2
350
68
  0
XRECORD
  5
1F7
102
{ACAD_REACTORS
330
C
102
}
330
C
100
AcDbXrecord
280
     1
  1
DWGPROPS COOKIE
  2

  3

  4

  6

  7

  8
radek.stransky
  9

300
=
301
=
302
=
303
=
304
=
305
=
306
=
307
=
308
=
309
=
 40
0.0
 41
2459100.359657454
 42
2459100.359658183
  1

 90
        0
  0
LAYOUT
  5
1E
102
{ACAD_REACTORS
330
1A
102
}
330
1A
100
AcDbPlotSettings
  1

  2
none_device
  4

  6

 40
0.0
 41
0.0
 42
0.0
 43
0.0
 44
0.0
 45
0.0
 46
0.0
 47
0.0
 48
0.0
 49
0.0
140
0.0
141
0.0
142
1.0
143
1.0
 70
   688
 72
     1
 73
     0
 74
     5
  7

 75
    16
147
1.0
148
0.0
149
0.0
100
AcDbLayout
  1
Layout1
 70
     1
 71
     1
 10
0.0
 20
0.0
 11
420.0
 21
297.0
 12
0.0
 22
0.0
 32
0.0
 14
1.0000000000E+20
 24
1.0000000000E+20
 34
1.0000000000E+20
 15
-1.0000000000E+20
 25
-1.0000000000E+20
 35
-1.0000000000E+20
146
0.0
 13
0.0
 23
0.0
 33
0.0
 16
1.0
 26
0.0
 36
0.0
 17
0.0
 27
1.0
 37
0.0
 76
     0
330
1B
  0
LAYOUT
  5
26
102
{ACAD_REACTORS
330
1A
102
}
330
1A
100
AcDbPlotSettings
  1

  2
none_device
  4

  6

 40
0.0
 41
0.0
 42
0.0
 43
0.0
 44
0.0
 45
0.0
 46
0.0
 47
0.0
 48
0.0
 49
0.0
140
0.0
141
0.0
142
1.0
143
1.0
 70
   688
 72
     1
 73
     0
 74
     5
  7

 75
    16
147
1.0
148
0.0
149
0.0
100
AcDbLayout
  1
Layout2
 70
     1
 71
     2
 10
0.0
 20
0.0
 11
0.0
 21
0.0
 12
0.0
 22
0.0
 32
0.0
 14
0.0
 24
0.0
 34
0.0
 15
0.0
 25
0.0
 35
0.0
146
0.0
 13
0.0
 23
0.0
 33
0.0
 16
1.0
 26
0.0
 36
0.0
 17
0.0
 27
1.0
 37
0.0
 76
     0
330
23
  0
LAYOUT
  5
22
102
{ACAD_REACTORS
330
1A
102
}
330
1A
100
AcDbPlotSettings
  1

  2
none_device
  4
Letter_(8.50_x_11.00_Inches)
  6

 40
6.35
 41
6.35
 42
6.35000508
 43
6.35000508
 44
215.9
 45
279.4
 46
0.0
 47
0.0
 48
0.0
 49
0.0
140
0.0
141
0.0
142
1.0
143
1.0
 70
  1712
 72
     1
 73
     0
 74
     0
  7

 75
     0
147
1.0
148
0.0
149
0.0
100
AcDbLayout
  1
Model
 70
     1
 71
     0
 10
0.0
 20
0.0
 11
20000.0
 21
10000.0
 12
0.0
 22
0.0
 32
0.0
 14
0.0
 24
0.0
 34
0.0
 15
20000.0
 25
10000.0
 35
0.0
146
0.0
 13
0.0
 23
0.0
 33
0.0
 16
1.0
 26
0.0
 36
0.0
 17
0.0
 27
1.0
 37
0.0
 76
     0
330
1F
331
29
  0
MLINESTYLE
  5
18
102
{ACAD_REACTORS
330
17
102
}
330
17
100
AcDbMlineStyle
  2
Standard
 70
     0
  3

 62
   256
 51
90.0
 52
90.0
 71
     2
 49
0.5
 62
   256
  6
BYLAYER
 49
-0.5
 62
   256
  6
BYLAYER
  0
ACDBPLACEHOLDER
  5
F
102
{ACAD_REACTORS
330
E
102
}
330
E
  0
SCALE
  5
48
102
{ACAD_REACTORS
330
47
102
}
330
47
100
AcDbScale
 70
     0
300
1:1
140
1.0
141
1.0
290
     1
  0
SCALE
  5
49
102
{ACAD_REACTORS
330
47
102
}
330
47
100
AcDbScale
 70
     0
300
1:2
140
1.0
141
2.0
290
     0
  0
SCALE
  5
4A
102
{ACAD_REACTORS
330
47
102
}
330
47
100
AcDbScale
 70
     0
300
1:4
140
1.0
141
4.0
290
     0
  0
SCALE
  5
4B
102
{ACAD_REACTORS
330
47
102
}
330
47
100
AcDbScale
 70
     0
300
1:5
140
1.0
141
5.0
290
     0
  0
SCALE
  5
4C
102
{ACAD_REACTORS
330
47
102
}
330
47
100
AcDbScale
 70
     0
300
1:8
140
1.0
141
8.0
290
     0
  0
SCALE
  5
4D
102
{ACAD_REACTORS
330
47
102
}
330
47
100
AcDbScale
 70
     0
300
1:10
140
1.0
141
10.0
290
     0
  0
SCALE
  5
4E
102
{ACAD_REACTORS
330
47
102
}
330
47
100
AcDbScale
 70
     0
300
1:16
140
1.0
141
16.0
290
     0
  0
SCALE
  5
4F
102
{ACAD_REACTORS
330
47
102
}
330
47
100
AcDbScale
 70
     0
300
1:20
140
1.0
141
20.0
290
     0
  0
SCALE
  5
50
102
{ACAD_REACTORS
330
47
102
}
330
47
100
AcDbScale
 70
     0
300
1:30
140
1.0
141
30.0
290
     0
  0
SCALE
  5
51
102
{ACAD_REACTORS
330
47
102
}
330
47
100
AcDbScale
 70
     0
300
1:40
140
1.0
141
40.0
290
     0
  0
SCALE
  5
52
102
{ACAD_REACTORS
330
47
102
}
330
47
100
AcDbScale
 70
     0
300
1:50
140
1.0
141
50.0
290
     0
  0
SCALE
  5
53
102
{ACAD_REACTORS
330
47
102
}
330
47
100
AcDbScale
 70
     0
300
1:100
140
1.0
141
100.0
290
     0
  0
SCALE
  5
54
102
{ACAD_REACTORS
330
47
102
}
330
47
100
AcDbScale
 70
     0
300
2:1
140
2.0
141
1.0
290
     0
  0
SCALE
  5
55
102
{ACAD_REACTORS
330
47
102
}
330
47
100
AcDbScale
 70
     0
300
4:1
140
4.0
141
1.0
290
     0
  0
SCALE
  5
56
102
{ACAD_REACTORS
330
47
102
}
330
47
100
AcDbScale
 70
     0
300
8:1
140
8.0
141
1.0
290
     0
  0
SCALE
  5
57
102
{ACAD_REACTORS
330
47
102
}
330
47
100
AcDbScale
 70
     0
300
10:1
140
10.0
141
1.0
290
     0
  0
SCALE
  5
58
102
{ACAD_REACTORS
330
47
102
}
330
47
100
AcDbScale
 70
     0
300
100:1
140
100.0
141
1.0
290
     0
  0
SCALE
  5
59
102
{ACAD_REACTORS
330
47
102
}
330
47
100
AcDbScale
 70
     0
300
1/128" = 1'-0"
140
0.0078125
141
12.0
290
     0
  0
SCALE
  5
5A
102
{ACAD_REACTORS
330
47
102
}
330
47
100
AcDbScale
 70
     0
300
1/64" = 1'-0"
140
0.015625
141
12.0
290
     0
  0
SCALE
  5
5B
102
{ACAD_REACTORS
330
47
102
}
330
47
100
AcDbScale
 70
     0
300
1/32" = 1'-0"
140
0.03125
141
12.0
290
     0
  0
SCALE
  5
5C
102
{ACAD_REACTORS
330
47
102
}
330
47
100
AcDbScale
 70
     0
300
1/16" = 1'-0"
140
0.0625
141
12.0
290
     0
  0
SCALE
  5
5D
102
{ACAD_REACTORS
330
47
102
}
330
47
100
AcDbScale
 70
     0
300
3/32" = 1'-0"
140
0.09375
141
12.0
290
     0
  0
SCALE
  5
5E
102
{ACAD_REACTORS
330
47
102
}
330
47
100
AcDbScale
 70
     0
300
1/8" = 1'-0"
140
0.125
141
12.0
290
     0
  0
SCALE
  5
5F
102
{ACAD_REACTORS
330
47
102
}
330
47
100
AcDbScale
 70
     0
300
3/16" = 1'-0"
140
0.1875
141
12.0
290
     0
  0
SCALE
  5
60
102
{ACAD_REACTORS
330
47
102
}
330
47
100
AcDbScale
 70
     0
300
1/4" = 1'-0"
140
0.25
141
12.0
290
     0
  0
SCALE
  5
61
102
{ACAD_REACTORS
330
47
102
}
330
47
100
AcDbScale
 70
     0
300
3/8" = 1'-0"
140
0.375
141
12.0
290
     0
  0
SCALE
  5
62
102
{ACAD_REACTORS
330
47
102
}
330
47
100
AcDbScale
 70
     0
300
1/2" = 1'-0"
140
0.5
141
12.0
290
     0
  0
SCALE
  5
63
102
{ACAD_REACTORS
330
47
102
}
330
47
100
AcDbScale
 70
     0
300
3/4" = 1'-0"
140
0.75
141
12.0
290
     0
  0
SCALE
  5
64
102
{ACAD_REACTORS
330
47
102
}
330
47
100
AcDbScale
 70
     0
300
1" = 1'-0"
140
1.0
141
12.0
290
     0
  0
SCALE
  5
65
102
{ACAD_REACTORS
330
47
102
}
330
47
100
AcDbScale
 70
     0
300
1-1/2" = 1'-0"
140
1.5
141
12.0
290
     0
  0
SCALE
  5
66
102
{ACAD_REACTORS
330
47
102
}
330
47
100
AcDbScale
 70
     0
300
3" = 1'-0"
140
3.0
141
12.0
290
     0
  0
SCALE
  5
67
102
{ACAD_REACTORS
330
47
102
}
330
47
100
AcDbScale
 70
     0
300
6" = 1'-0"
140
6.0
141
12.0
290
     0
  0
SCALE
  5
68
102
{ACAD_REACTORS
330
47
102
}
330
47
100
AcDbScale
 70
     0
300
1'-0" = 1'-0"
140
12.0
141
12.0
290
     0
  0
ENDSEC
  0
EOF
