  0
SECTION
  2
HEADER
  9
$ACADVER
  1
AC1015
  9
$ACADMAINTVER
 70
     6
  9
$DWGCODEPAGE
  3
ANSI_1250
  9
$INSBASE
 10
0.0
 20
0.0
 30
0.0
  9
$EXTMIN
 10
0.0
 20
0.0
 30
0.0
  9
$EXTMAX
 10
20000.0
 20
10000.0
 30
0.0
  9
$LIMMIN
 10
0.0
 20
0.0
  9
$LIMMAX
 10
20000.0
 20
10000.0
  9
$ORTHOMODE
 70
     0
  9
$REGENMODE
 70
     1
  9
$FILLMODE
 70
     1
  9
$QTEXTMODE
 70
     0
  9
$MIRRTEXT
 70
     1
  9
$LTSCALE
 40
1.0
  9
$ATTMODE
 70
     1
  9
$TEXTSIZE
 40
2.0
  9
$TRACEWID
 40
1.0
  9
$TEXTSTYLE
  7
Standard
  9
$CLAYER
  8
0
  9
$CELTYPE
  6
ByLayer
  9
$CECOLOR
 62
   256
  9
$CELTSCALE
 40
1.0
  9
$DISPSILH
 70
     0
  9
$DIMSCALE
 40
1.0
  9
$DIMASZ
 40
2.0
  9
$DIMEXO
 40
1.0
  9
$DIMDLI
 40
3.75
  9
$DIMRND
 40
0.0
  9
$DIMDLE
 40
0.0
  9
$DIMEXE
 40
1.0
  9
$DIMTP
 40
0.0
  9
$DIMTM
 40
0.0
  9
$DIMTXT
 40
2.0
  9
$DIMCEN
 40
2.5
  9
$DIMTSZ
 40
0.0
  9
$DIMTOL
 70
     0
  9
$DIMLIM
 70
     0
  9
$DIMTIH
 70
     1
  9
$DIMTOH
 70
     1
  9
$DIMSE1
 70
     0
  9
$DIMSE2
 70
     0
  9
$DIMTAD
 70
     1
  9
$DIMZIN
 70
     0
  9
$DIMBLK
  1

  9
$DIMASO
 70
     1
  9
$DIMSHO
 70
     1
  9
$DIMPOST
  1

  9
$DIMAPOST
  1

  9
$DIMALT
 70
     0
  9
$DIMALTD
 70
     3
  9
$DIMALTF
 40
0.0393700787
  9
$DIMLFAC
 40
1.0
  9
$DIMTOFL
 70
     1
  9
$DIMTVP
 40
0.0
  9
$DIMTIX
 70
     0
  9
$DIMSOXD
 70
     0
  9
$DIMSAH
 70
     0
  9
$DIMBLK1
  1

  9
$DIMBLK2
  1

  9
$DIMSTYLE
  2
ISO-25
  9
$DIMCLRD
 70
     0
  9
$DIMCLRE
 70
     0
  9
$DIMCLRT
 70
     0
  9
$DIMTFAC
 40
1.0
  9
$DIMGAP
 40
1.524
  9
$DIMJUST
 70
     0
  9
$DIMSD1
 70
     0
  9
$DIMSD2
 70
     0
  9
$DIMTOLJ
 70
     0
  9
$DIMTZIN
 70
     0
  9
$DIMALTZ
 70
     0
  9
$DIMALTTZ
 70
     0
  9
$DIMUPT
 70
     0
  9
$DIMDEC
 70
     2
  9
$DIMTDEC
 70
     0
  9
$DIMALTU
 70
     2
  9
$DIMALTTD
 70
     3
  9
$DIMTXSTY
  7
Standard
  9
$DIMAUNIT
 70
     0
  9
$DIMADEC
 70
     2
  9
$DIMALTRND
 40
0.0
  9
$DIMAZIN
 70
     0
  9
$DIMDSEP
 70
    44
  9
$DIMATFIT
 70
     3
  9
$DIMFRAC
 70
     0
  9
$DIMLDRBLK
  1

  9
$DIMLUNIT
 70
     2
  9
$DIMLWD
 70
    -2
  9
$DIMLWE
 70
    -2
  9
$DIMTMOVE
 70
     0
  9
$LUNITS
 70
     2
  9
$LUPREC
 70
     3
  9
$SKETCHINC
 40
1.0
  9
$FILLETRAD
 40
10.0
  9
$AUNITS
 70
     0
  9
$AUPREC
 70
     2
  9
$MENU
  1
.
  9
$ELEVATION
 40
0.0
  9
$PELEVATION
 40
0.0
  9
$THICKNESS
 40
0.0
  9
$LIMCHECK
 70
     0
  9
$CHAMFERA
 40
0.0
  9
$CHAMFERB
 40
0.0
  9
$CHAMFERC
 40
0.0
  9
$CHAMFERD
 40
0.0
  9
$SKPOLY
 70
     0
  9
$TDCREATE
 40
2458701.371116377
  9
$TDUCREATE
 40
2458701.287783044
  9
$TDUPDATE
 40
2458701.371117118
  9
$TDUUPDATE
 40
2458701.287783785
  9
$TDINDWG
 40
0.0000000116
  9
$TDUSRTIMER
 40
0.0000000116
  9
$USRTIMER
 70
     1
  9
$ANGBASE
 50
0.0
  9
$ANGDIR
 70
     0
  9
$PDMODE
 70
     0
  9
$PDSIZE
 40
-1.0
  9
$PLINEWID
 40
0.0
  9
$SPLFRAME
 70
     0
  9
$SPLINETYPE
 70
     6
  9
$SPLINESEGS
 70
     8
  9
$HANDSEED
  5
371
  9
$SURFTAB1
 70
     6
  9
$SURFTAB2
 70
     6
  9
$SURFTYPE
 70
     6
  9
$SURFU
 70
     6
  9
$SURFV
 70
     6
  9
$UCSBASE
  2

  9
$UCSNAME
  2

  9
$UCSORG
 10
0.0
 20
0.0
 30
0.0
  9
$UCSXDIR
 10
1.0
 20
0.0
 30
0.0
  9
$UCSYDIR
 10
0.0
 20
1.0
 30
0.0
  9
$UCSORTHOREF
  2

  9
$UCSORTHOVIEW
 70
     0
  9
$UCSORGTOP
 10
0.0
 20
0.0
 30
0.0
  9
$UCSORGBOTTOM
 10
0.0
 20
0.0
 30
0.0
  9
$UCSORGLEFT
 10
0.0
 20
0.0
 30
0.0
  9
$UCSORGRIGHT
 10
0.0
 20
0.0
 30
0.0
  9
$UCSORGFRONT
 10
0.0
 20
0.0
 30
0.0
  9
$UCSORGBACK
 10
0.0
 20
0.0
 30
0.0
  9
$PUCSBASE
  2

  9
$PUCSNAME
  2

  9
$PUCSORG
 10
0.0
 20
0.0
 30
0.0
  9
$PUCSXDIR
 10
1.0
 20
0.0
 30
0.0
  9
$PUCSYDIR
 10
0.0
 20
1.0
 30
0.0
  9
$PUCSORTHOREF
  2

  9
$PUCSORTHOVIEW
 70
     0
  9
$PUCSORGTOP
 10
0.0
 20
0.0
 30
0.0
  9
$PUCSORGBOTTOM
 10
0.0
 20
0.0
 30
0.0
  9
$PUCSORGLEFT
 10
0.0
 20
0.0
 30
0.0
  9
$PUCSORGRIGHT
 10
0.0
 20
0.0
 30
0.0
  9
$PUCSORGFRONT
 10
0.0
 20
0.0
 30
0.0
  9
$PUCSORGBACK
 10
0.0
 20
0.0
 30
0.0
  9
$USERI1
 70
     0
  9
$USERI2
 70
     0
  9
$USERI3
 70
     0
  9
$USERI4
 70
     0
  9
$USERI5
 70
     0
  9
$USERR1
 40
0.0
  9
$USERR2
 40
0.0
  9
$USERR3
 40
0.0
  9
$USERR4
 40
0.0
  9
$USERR5
 40
0.0
  9
$WORLDVIEW
 70
     1
  9
$SHADEDGE
 70
     3
  9
$SHADEDIF
 70
    70
  9
$TILEMODE
 70
     1
  9
$MAXACTVP
 70
    64
  9
$PINSBASE
 10
0.0
 20
0.0
 30
0.0
  9
$PLIMCHECK
 70
     0
  9
$PEXTMIN
 10
1.0000000000E+20
 20
1.0000000000E+20
 30
1.0000000000E+20
  9
$PEXTMAX
 10
-1.0000000000E+20
 20
-1.0000000000E+20
 30
-1.0000000000E+20
  9
$PLIMMIN
 10
0.0
 20
0.0
  9
$PLIMMAX
 10
420.0
 20
297.0
  9
$UNITMODE
 70
     0
  9
$VISRETAIN
 70
     1
  9
$PLINEGEN
 70
     0
  9
$PSLTSCALE
 70
     1
  9
$TREEDEPTH
 70
  3020
  9
$CMLSTYLE
  2
Standard
  9
$CMLJUST
 70
     0
  9
$CMLSCALE
 40
20.0
  9
$PROXYGRAPHICS
 70
     1
  9
$MEASUREMENT
 70
     1
  9
$CELWEIGHT
370
    -1
  9
$ENDCAPS
280
     0
  9
$JOINSTYLE
280
     0
  9
$LWDISPLAY
290
     1
  9
$INSUNITS
 70
     4
  9
$HYPERLINKBASE
  1

  9
$STYLESHEET
  1

  9
$XEDIT
290
     1
  9
$CEPSNTYPE
380
     0
  9
$PSTYLEMODE
290
     1
  9
$FINGERPRINTGUID
  2
{724AD88C-A699-4880-9A1B-89369F71976D}
  9
$VERSIONGUID
  2
{FAEB1C32-E019-11D5-929B-00C0DF256EC4}
  9
$EXTNAMES
290
     1
  9
$PSVPSCALE
 40
0.0
  9
$OLESTARTUP
290
     0
  0
ENDSEC
  0
SECTION
  2
CLASSES
  0
CLASS
  1
ACDBDICTIONARYWDFLT
  2
AcDbDictionaryWithDefault
  3
ObjectDBX Classes
 90
        0
280
     0
281
     0
  0
CLASS
  1
VISUALSTYLE
  2
AcDbVisualStyle
  3
ObjectDBX Classes
 90
     4095
280
     0
281
     0
  0
CLASS
  1
MATERIAL
  2
AcDbMaterial
  3
ObjectDBX Classes
 90
     1153
280
     0
281
     0
  0
CLASS
  1
SCALE
  2
AcDbScale
  3
ObjectDBX Classes
 90
     1153
280
     0
281
     0
  0
CLASS
  1
TABLESTYLE
  2
AcDbTableStyle
  3
ObjectDBX Classes
 90
     4095
280
     0
281
     0
  0
CLASS
  1
MLEADERSTYLE
  2
AcDbMLeaderStyle
  3
ACDB_MLEADERSTYLE_CLASS
 90
     4095
280
     0
281
     0
  0
CLASS
  1
SUN
  2
AcDbSun
  3
SCENEOE
 90
     1153
280
     0
281
     0
  0
CLASS
  1
ACDBPLACEHOLDER
  2
AcDbPlaceHolder
  3
ObjectDBX Classes
 90
        0
280
     0
281
     0
  0
CLASS
  1
LAYOUT
  2
AcDbLayout
  3
ObjectDBX Classes
 90
        0
280
     0
281
     0
  0
ENDSEC
  0
SECTION
  2
TABLES
  0
TABLE
  2
VPORT
  5
8
330
0
100
AcDbSymbolTable
 70
     1
  0
VPORT
  5
29
330
8
100
AcDbSymbolTableRecord
100
AcDbViewportTableRecord
  2
*Active
 70
     0
 10
0.0
 20
0.0
 11
1.0
 21
1.0
 12
10000.0
 22
5000.0
 13
0.0
 23
0.0
 14
10.0
 24
10.0
 15
10.0
 25
10.0
 16
0.0
 26
0.0
 36
1.0
 17
0.0
 27
0.0
 37
0.0
 40
10000.0
 41
2.0
 42
50.0
 43
0.0
 44
0.0
 50
0.0
 51
0.0
 71
     0
 72
  2000
 73
     1
 74
     3
 75
     0
 76
     0
 77
     0
 78
     0
281
     0
 65
     1
110
0.0
120
0.0
130
0.0
111
1.0
121
0.0
131
0.0
112
0.0
122
1.0
132
0.0
 79
     0
146
0.0
  0
ENDTAB
  0
TABLE
  2
LTYPE
  5
5
330
0
100
AcDbSymbolTable
 70
     6
  0
LTYPE
  5
14
330
5
100
AcDbSymbolTableRecord
100
AcDbLinetypeTableRecord
  2
ByBlock
 70
     0
  3

 72
    65
 73
     0
 40
0.0
  0
LTYPE
  5
15
330
5
100
AcDbSymbolTableRecord
100
AcDbLinetypeTableRecord
  2
ByLayer
 70
     0
  3

 72
    65
 73
     0
 40
0.0
  0
LTYPE
  5
16
330
5
100
AcDbSymbolTableRecord
100
AcDbLinetypeTableRecord
  2
Continuous
 70
     0
  3
Solid line
 72
    65
 73
     0
 40
0.0
  0
LTYPE
  5
6E
330
5
100
AcDbSymbolTableRecord
100
AcDbLinetypeTableRecord
  2
HIDDEN
 70
     0
  3
Hidden __ __ __ __ __ __ __ __ __ __ __ __ __ __
 72
    65
 73
     2
 40
1.905
 49
1.27
 74
     0
 49
-0.635
 74
     0
  0
LTYPE
  5
6F
330
5
100
AcDbSymbolTableRecord
100
AcDbLinetypeTableRecord
  2
PHANTOM
 70
     0
  3
Phantom ______  __  __  ______  __  __  ______
 72
    65
 73
     6
 40
12.7
 49
6.35
 74
     0
 49
-1.27
 74
     0
 49
1.27
 74
     0
 49
-1.27
 74
     0
 49
1.27
 74
     0
 49
-1.27
 74
     0
  0
LTYPE
  5
70
330
5
100
AcDbSymbolTableRecord
100
AcDbLinetypeTableRecord
  2
CENTER
 70
     0
  3
Center ____ _ ____ _ ____ _ ____ _ ____ _ ____
 72
    65
 73
     4
 40
10.16
 49
6.35
 74
     0
 49
-1.27
 74
     0
 49
1.27
 74
     0
 49
-1.27
 74
     0
  0
LTYPE
  5
71
330
5
100
AcDbSymbolTableRecord
100
AcDbLinetypeTableRecord
  2
CENTERX2
 70
     0
  3
Center (2x) ________  __  ________  __  _____
 72
    65
 73
     4
 40
20.32
 49
12.7
 74
     0
 49
-2.54
 74
     0
 49
2.54
 74
     0
 49
-2.54
 74
     0
  0
LTYPE
  5
72
330
5
100
AcDbSymbolTableRecord
100
AcDbLinetypeTableRecord
  2
DOT2
 70
     0
  3
Dot (.5x) ........................................
 72
    65
 73
     2
 40
0.635
 49
0.0
 74
     0
 49
-0.635
 74
     0
  0
ENDTAB
  0
TABLE
  2
LAYER
  5
2
330
0
100
AcDbSymbolTable
 70
    13
  0
LAYER
  5
10
330
2
100
AcDbSymbolTableRecord
100
AcDbLayerTableRecord
  2
0
 70
     0
 62
     7
  6
Continuous
370
    -3
390
F
  0
LAYER
  5
73
330
2
100
AcDbSymbolTableRecord
100
AcDbLayerTableRecord
  2
FORMAT
 70
     0
 62
     7
  6
Continuous
370
    -3
390
F
  0
LAYER
  5
74
330
2
100
AcDbSymbolTableRecord
100
AcDbLayerTableRecord
  2
OSA
 70
     0
 62
     7
  6
CENTER
370
    -3
390
F
  0
LAYER
  5
75
330
2
100
AcDbSymbolTableRecord
100
AcDbLayerTableRecord
  2
0_35
 70
     0
 62
     7
  6
Continuous
370
    35
390
F
  0
LAYER
  5
76
330
2
100
AcDbSymbolTableRecord
100
AcDbLayerTableRecord
  2
0_5
 70
     0
 62
     7
  6
Continuous
370
    50
390
F
  0
LAYER
  5
77
330
2
100
AcDbSymbolTableRecord
100
AcDbLayerTableRecord
  2
0_25
 70
     0
 62
     7
  6
Continuous
370
    25
390
F
  0
LAYER
  5
78
330
2
100
AcDbSymbolTableRecord
100
AcDbLayerTableRecord
  2
0_18
 70
     0
 62
     7
  6
Continuous
370
    -3
390
F
  0
LAYER
  5
79
330
2
100
AcDbSymbolTableRecord
100
AcDbLayerTableRecord
  2
SLD-0
 70
     0
 62
   179
  6
Continuous
370
    -3
390
F
  0
LAYER
  5
7A
330
2
100
AcDbSymbolTableRecord
100
AcDbLayerTableRecord
  2
KOTY
 70
     0
 62
     7
  6
Continuous
370
    -3
390
F
  0
LAYER
  5
7B
330
2
100
AcDbSymbolTableRecord
100
AcDbLayerTableRecord
  2
SILNA
 70
     0
 62
   179
  6
Continuous
370
    -3
390
F
  0
LAYER
  5
7C
330
2
100
AcDbSymbolTableRecord
100
AcDbLayerTableRecord
  2
0_18_1
 70
     0
 62
   179
  6
Continuous
370
    -3
390
F
  0
LAYER
  5
7D
330
2
100
AcDbSymbolTableRecord
100
AcDbLayerTableRecord
  2
0_35_1
 70
     0
 62
   179
  6
Continuous
370
    35
390
F
  0
LAYER
  5
7E
330
2
100
AcDbSymbolTableRecord
100
AcDbLayerTableRecord
  2
0_5_1
 70
     0
 62
   179
  6
Continuous
370
    50
390
F
  0
ENDTAB
  0
TABLE
  2
STYLE
  5
3
330
0
100
AcDbSymbolTable
 70
     1
  0
STYLE
  5
11
330
3
100
AcDbSymbolTableRecord
100
AcDbTextStyleTableRecord
  2
Standard
 70
     0
 40
0.0
 41
1.0
 50
0.0
 71
     0
 42
2.0
  3
txt
  4

  0
ENDTAB
  0
TABLE
  2
VIEW
  5
6
330
0
100
AcDbSymbolTable
 70
     0
  0
ENDTAB
  0
TABLE
  2
UCS
  5
7
330
0
100
AcDbSymbolTable
 70
     0
  0
ENDTAB
  0
TABLE
  2
APPID
  5
9
330
0
100
AcDbSymbolTable
 70
     1
  0
APPID
  5
12
330
9
100
AcDbSymbolTableRecord
100
AcDbRegAppTableRecord
  2
ACAD
 70
     0
  0
ENDTAB
  0
TABLE
  2
DIMSTYLE
  5
A
330
0
100
AcDbSymbolTable
 70
     1
100
AcDbDimStyleTable
  0
DIMSTYLE
105
27
330
A
100
AcDbSymbolTableRecord
100
AcDbDimStyleTableRecord
  2
ISO-25
 70
     0
 41
2.5
 42
0.625
 43
3.75
 44
1.25
 73
     0
 74
     0
 77
     1
 78
     8
140
2.5
141
2.5
143
0.0393700787
147
0.625
171
     3
172
     1
178
     0
271
     2
272
     2
274
     3
278
    44
283
     0
284
     8
340
11
  0
ENDTAB
  0
TABLE
  2
BLOCK_RECORD
  5
1
330
0
100
AcDbSymbolTable
 70
     1
  0
BLOCK_RECORD
  5
1F
330
1
100
AcDbSymbolTableRecord
100
AcDbBlockTableRecord
  2
*Model_Space
340
22
  0
BLOCK_RECORD
  5
1B
330
1
100
AcDbSymbolTableRecord
100
AcDbBlockTableRecord
  2
*Paper_Space
340
1E
  0
BLOCK_RECORD
  5
23
330
1
100
AcDbSymbolTableRecord
100
AcDbBlockTableRecord
  2
*Paper_Space0
340
26
  0
ENDTAB
  0
ENDSEC
  0
SECTION
  2
BLOCKS
  0
BLOCK
  5
20
330
1F
100
AcDbEntity
  8
0
100
AcDbBlockBegin
  2
*Model_Space
 70
     0
 10
0.0
 20
0.0
 30
0.0
  3
*Model_Space
  1

  0
ENDBLK
  5
21
330
1F
100
AcDbEntity
  8
0
100
AcDbBlockEnd
  0
BLOCK
  5
1C
330
1B
100
AcDbEntity
 67
     1
  8
0
100
AcDbBlockBegin
  2
*Paper_Space
 70
     0
 10
0.0
 20
0.0
 30
0.0
  3
*Paper_Space
  1

  0
ENDBLK
  5
1D
330
1B
100
AcDbEntity
 67
     1
  8
0
100
AcDbBlockEnd
  0
BLOCK
  5
24
330
23
100
AcDbEntity
  8
0
100
AcDbBlockBegin
  2
*Paper_Space0
 70
     0
 10
0.0
 20
0.0
 30
0.0
  3
*Paper_Space0
  1

  0
ENDBLK
  5
25
330
23
100
AcDbEntity
  8
0
100
AcDbBlockEnd
  0
ENDSEC
  0
SECTION
  2
ENTITIES
  0
LINE
  5
7F
330
1F
100
AcDbEntity
  8
0
  6
Continuous
 62
     7
370
    25
100
AcDbLine
 10
6286.2392553732
 20
5298.3941189079
 30
0.0
 11
6285.7392552912
 21
5298.8941199212
 31
0.0
  0
LINE
  5
80
330
1F
100
AcDbEntity
  8
0
  6
Continuous
 62
     7
370
    25
100
AcDbLine
 10
6262.298255381
 20
5298.8941199212
 30
0.0
 11
6261.798255299
 21
5298.3941189079
 31
0.0
  0
CIRCLE
  5
81
330
1F
100
AcDbEntity
  8
0
  6
Continuous
 62
     7
370
    25
100
AcDbCircle
 10
6274.0187553361
 20
5178.3941166548
 30
0.0
 40
11.25
  0
SPLINE
  5
82
330
1F
100
AcDbEntity
  8
0
  6
Continuous
 62
     7
370
    25
100
AcDbSpline
210
0.0
220
0.0
230
1.0
 70
     8
 71
     3
 72
    10
 73
     6
 74
     0
 42
0.000000001
 43
0.00000001
 40
0.0
 40
0.0
 40
0.0
 40
0.0
 40
0.2063148589499931
 40
0.4477610011550535
 40
0.9999999999999999
 40
0.9999999999999999
 40
0.9999999999999999
 40
0.9999999999999999
 10
6266.903340504313
 20
5256.923479500249
 30
0.0
 10
6266.887791029421
 20
5257.023121578554
 30
0.0
 10
6266.854044315876
 20
5257.239372782979
 30
0.0
 10
6266.522733225811
 20
5257.605422608289
 30
0.0
 10
6266.27160841135
 20
5257.886049501535
 30
0.0
 10
6266.09687801897
 20
5258.081307175592
 30
0.0
  0
SPLINE
  5
83
330
1F
100
AcDbEntity
  8
0
  6
Continuous
 62
     7
370
    25
100
AcDbSpline
210
0.0
220
0.0
230
1.0
 70
     8
 71
     3
 72
    13
 73
     9
 74
     0
 42
0.000000001
 43
0.00000001
 40
0.0
 40
0.0
 40
0.0
 40
0.0
 40
0.1747681577605439
 40
0.3174759335156433
 40
0.4415358107346712
 40
0.5610535648428442
 40
0.7638537751710902
 40
1.0
 40
1.0
 40
1.0
 40
1.0
 10
6266.350885075325
 20
5256.280729088024
 30
0.0
 10
6266.408075455555
 20
5256.283112341838
 30
0.0
 10
6266.511964914505
 20
5256.287441652962
 30
0.0
 10
6266.651317442191
 20
5256.331669581757
 30
0.0
 10
6266.75676605393
 20
5256.404676304703
 30
0.0
 10
6266.844026761255
 20
5256.524245561631
 30
0.0
 10
6266.896030777531
 20
5256.702987849867
 30
0.0
 10
6266.900783574744
 20
5256.846351908838
 30
0.0
 10
6266.903340504313
 20
5256.923479500249
 30
0.0
  0
LINE
  5
84
330
1F
100
AcDbEntity
  8
0
  6
Continuous
 62
     7
370
    25
100
AcDbLine
 10
6265.1528531358
 20
5256.278624299
 30
0.0
 11
6266.3508850753
 21
5256.280729088
 31
0.0
  0
LINE
  5
85
330
1F
100
AcDbEntity
  8
0
  6
Continuous
 62
     7
370
    25
100
AcDbLine
 10
6265.1535767734
 20
5255.6584379701
 30
0.0
 11
6265.1528531358
 21
5256.278624299
 31
0.0
  0
LINE
  5
86
330
1F
100
AcDbEntity
  8
0
  6
Continuous
 62
     7
370
    25
100
AcDbLine
 10
6266.4052137777
 20
5255.6605427591
 30
0.0
 11
6265.1535767734
 21
5255.6584379701
 31
0.0
  0
SPLINE
  5
87
330
1F
100
AcDbEntity
  8
0
  6
Continuous
 62
     7
370
    25
100
AcDbSpline
210
0.0
220
0.0
230
1.0
 70
     8
 71
     3
 72
    12
 73
     8
 74
     0
 42
0.000000001
 43
0.00000001
 40
0.0
 40
0.0
 40
0.0
 40
0.0
 40
0.2209696440797174
 40
0.4278335862870333
 40
0.6255771167910956
 40
0.8361709874663276
 40
0.9999999999999999
 40
0.9999999999999999
 40
0.9999999999999999
 40
0.9999999999999999
 10
6267.531277765328
 20
5256.62293052955
 30
0.0
 10
6267.501762785021
 20
5256.508413196999
 30
0.0
 10
6267.444616927153
 20
5256.286688800049
 30
0.0
 10
6267.229544470104
 20
5256.023243736781
 30
0.0
 10
6266.96763116407
 20
5255.828811735285
 30
0.0
 10
6266.689230589533
 20
5255.696358484293
 30
0.0
 10
6266.491660651736
 20
5255.671444076776
 30
0.0
 10
6266.405213777715
 20
5255.660542759136
 30
0.0
  0
SPLINE
  5
88
330
1F
100
AcDbEntity
  8
0
  6
Continuous
 62
     7
370
    25
100
AcDbSpline
210
0.0
220
0.0
230
1.0
 70
     8
 71
     3
 72
    11
 73
     7
 74
     0
 42
0.000000001
 43
0.00000001
 40
0.0
 40
0.0
 40
0.0
 40
0.0
 40
0.1980850155560847
 40
0.45448870840854
 40
0.7002012417135824
 40
1.0
 40
1.0
 40
1.0
 40
1.0
 10
6267.178500224644
 20
5257.838600787357
 30
0.0
 10
6267.232309491234
 20
5257.770932986619
 30
0.0
 10
6267.355770137683
 20
5257.6156751481
 30
0.0
 10
6267.489574536573
 20
5257.337785214527
 30
0.0
 10
6267.563360133692
 20
5256.991775062143
 30
0.0
 10
6267.542656139689
 20
5256.75374540971
 30
0.0
 10
6267.531277765328
 20
5256.62293052955
 30
0.0
  0
SPLINE
  5
89
330
1F
100
AcDbEntity
  8
0
  6
Continuous
 62
     7
370
    25
100
AcDbSpline
210
0.0
220
0.0
230
1.0
 70
     8
 71
     3
 72
     9
 73
     5
 74
     0
 42
0.000000001
 43
0.00000001
 40
0.0
 40
0.0
 40
0.0
 40
0.0
 40
0.6398298221026709
 40
1.0
 40
1.0
 40
1.0
 40
1.0
 10
6266.59924179762
 20
5258.468674036697
 30
0.0
 10
6266.73210849951
 20
5258.342627297825
 30
0.0
 10
6266.939767938474
 20
5258.145626885344
 30
0.0
 10
6267.115284421668
 20
5257.919900646836
 30
0.0
 10
6267.178500224644
 20
5257.838600787357
 30
0.0
  0
SPLINE
  5
8A
330
1F
100
AcDbEntity
  8
0
  6
Continuous
 62
     7
370
    25
100
AcDbSpline
210
0.0
220
0.0
230
1.0
 70
     8
 71
     3
 72
    10
 73
     6
 74
     0
 42
0.000000001
 43
0.00000001
 40
0.0
 40
0.0
 40
0.0
 40
0.0
 40
0.294177512348425
 40
0.556394106891859
 40
1.0
 40
1.0
 40
1.0
 40
1.0
 10
6266.005893391365
 20
5259.587673011259
 30
0.0
 10
6266.012659932819
 20
5259.457952908036
 30
0.0
 10
6266.025457864784
 20
5259.212606143074
 30
0.0
 10
6266.22977716295
 20
5258.813452229074
 30
0.0
 10
6266.456652061733
 20
5258.601736383612
 30
0.0
 10
6266.59924179762
 20
5258.468674036697
 30
0.0
  0
SPLINE
  5
8B
330
1F
100
AcDbEntity
  8
0
  6
Continuous
 62
     7
370
    25
100
AcDbSpline
210
0.0
220
0.0
230
1.0
 70
     8
 71
     3
 72
    12
 73
     8
 74
     0
 42
0.000000001
 43
0.00000001
 40
0.0
 40
0.0
 40
0.0
 40
0.0
 40
0.2999063543787801
 40
0.5639564465721859
 40
0.6970631843253876
 40
0.838171008593714
 40
1.0
 40
1.0
 40
1.0
 40
1.0
 10
6266.731188786024
 20
5260.173996451334
 30
0.0
 10
6266.626150438787
 20
5260.165781511869
 30
0.0
 10
6266.428631939438
 20
5260.150333796269
 30
0.0
 10
6266.200119897312
 20
5260.039516382028
 30
0.0
 10
6266.076136476383
 20
5259.894461067622
 30
0.0
 10
6266.015334394064
 20
5259.751043090142
 30
0.0
 10
6266.00918069848
 20
5259.644557607089
 30
0.0
 10
6266.005893391365
 20
5259.587673011259
 30
0.0
  0
LINE
  5
8C
330
1F
100
AcDbEntity
  8
0
  6
Continuous
 62
     7
370
    25
100
AcDbLine
 10
6269.01153211
 20
5260.1739964513
 30
0.0
 11
6266.731188786
 21
5260.1739964513
 31
0.0
  0
LINE
  5
8D
330
1F
100
AcDbEntity
  8
0
  6
Continuous
 62
     7
370
    25
100
AcDbLine
 10
6272.8046166383
 20
5260.1760975151
 30
0.0
 11
6269.01153211
 21
5260.1739964513
 31
0.0
  0
LINE
  5
8E
330
1F
100
AcDbEntity
  8
0
  6
Continuous
 62
     7
370
    25
100
AcDbLine
 10
6277.1296928775
 20
5260.1824342339
 30
0.0
 11
6272.8046166383
 21
5260.1760975151
 31
0.0
  0
LINE
  5
8F
330
1F
100
AcDbEntity
  8
0
  6
Continuous
 62
     7
370
    25
100
AcDbLine
 10
6278.4702486031
 20
5260.1810596017
 30
0.0
 11
6277.1296928775
 21
5260.1824342339
 31
0.0
  0
LINE
  5
90
330
1F
100
AcDbEntity
  8
0
  6
Continuous
 62
     7
370
    25
100
AcDbLine
 10
6279.6753427617
 20
5260.1831606655
 30
0.0
 11
6278.4702486031
 21
5260.1810596017
 31
0.0
  0
LINE
  5
91
330
1F
100
AcDbEntity
  8
0
  6
Continuous
 62
     7
370
    25
100
AcDbLine
 10
6279.6745851308
 20
5260.7927671699
 30
0.0
 11
6279.6753427617
 21
5260.1831606655
 31
0.0
  0
LINE
  5
92
330
1F
100
AcDbEntity
  8
0
  6
Continuous
 62
     7
370
    25
100
AcDbLine
 10
6278.4687324099
 20
5260.7906325786
 30
0.0
 11
6279.6745851308
 21
5260.7927671699
 31
0.0
  0
LINE
  5
93
330
1F
100
AcDbEntity
  8
0
  6
Continuous
 62
     7
370
    25
100
AcDbLine
 10
6277.1289350137
 20
5260.7892206935
 30
0.0
 11
6278.4687324099
 21
5260.7906325786
 31
0.0
  0
LINE
  5
94
330
1F
100
AcDbEntity
  8
0
  6
Continuous
 62
     7
370
    25
100
AcDbLine
 10
6272.8038932335
 20
5260.7821575431
 30
0.0
 11
6277.1289350137
 21
5260.7892206935
 31
0.0
  0
LINE
  5
95
330
1F
100
AcDbEntity
  8
0
  6
Continuous
 62
     7
370
    25
100
AcDbLine
 10
6269.0101197593
 20
5260.772993329
 30
0.0
 11
6272.8038932335
 21
5260.7821575431
 31
0.0
  0
LINE
  5
96
330
1F
100
AcDbEntity
  8
0
  6
Continuous
 62
     7
370
    25
100
AcDbLine
 10
6266.6881598204
 20
5260.7694803803
 30
0.0
 11
6269.0101197593
 21
5260.772993329
 31
0.0
  0
SPLINE
  5
97
330
1F
100
AcDbEntity
  8
0
  6
Continuous
 62
     7
370
    25
100
AcDbSpline
210
0.0
220
0.0
230
1.0
 70
     8
 71
     3
 72
    12
 73
     8
 74
     0
 42
0.000000001
 43
0.00000001
 40
0.0
 40
0.0
 40
0.0
 40
0.0
 40
0.208175132900187
 40
0.3934133228739001
 40
0.5714645788111464
 40
0.7833290943942383
 40
1.0
 40
1.0
 40
1.0
 40
1.0
 10
6265.363830295199
 20
5259.629291954473
 30
0.0
 10
6265.382154197902
 20
5259.763761887899
 30
0.0
 10
6265.416783057506
 20
5260.017885723913
 30
0.0
 10
6265.614553704683
 20
5260.341692201447
 30
0.0
 10
6265.90193112688
 20
5260.583572760846
 30
0.0
 10
6266.270350845783
 20
5260.74024065041
 30
0.0
 10
6266.547852688979
 20
5260.759661197641
 30
0.0
 10
6266.688159820432
 20
5260.769480380252
 30
0.0
  0
SPLINE
  5
98
330
1F
100
AcDbEntity
  8
0
  6
Continuous
 62
     7
370
    25
100
AcDbSpline
210
0.0
220
0.0
230
1.0
 70
     8
 71
     3
 72
    11
 73
     7
 74
     0
 42
0.000000001
 43
0.00000001
 40
0.0
 40
0.0
 40
0.0
 40
0.0
 40
0.3057552457004966
 40
0.5531151879758792
 40
0.74981252235163
 40
0.9999999999999999
 40
0.9999999999999999
 40
0.9999999999999999
 40
0.9999999999999999
 10
6266.09687801897
 20
5258.081307175592
 30
0.0
 10
6265.976868696498
 20
5258.216607688988
 30
0.0
 10
6265.759770282353
 20
5258.461368064984
 30
0.0
 10
6265.481841889131
 20
5258.813821543848
 30
0.0
 10
6265.352554171259
 20
5259.213873965304
 30
0.0
 10
6265.359783161139
 20
5259.480193531798
 30
0.0
 10
6265.363830295199
 20
5259.629291954473
 30
0.0
  0
CIRCLE
  5
99
330
1F
100
AcDbEntity
  8
0
  6
Continuous
 62
     7
370
    25
100
AcDbCircle
 10
6274.0187553361
 20
5178.3941166548
 30
0.0
 40
11.34999999999945
  0
CIRCLE
  5
9A
330
1F
100
AcDbEntity
  8
0
  6
Continuous
 62
     7
370
    25
100
AcDbCircle
 10
6274.0187553361
 20
5213.3941166548
 30
0.0
 40
70.5
  0
LINE
  5
9B
330
1F
100
AcDbEntity
  8
0
  6
Continuous
 62
     7
370
    25
100
AcDbLine
 10
6275.1590294436
 20
5257.5316741197
 30
0.0
 11
6273.907426207
 21
5257.5366026787
 31
0.0
  0
LINE
  5
9C
330
1F
100
AcDbEntity
  8
0
  6
Continuous
 62
     7
370
    25
100
AcDbLine
 10
6274.962934586
 20
5258.1229223935
 30
0.0
 11
6275.1590294436
 21
5257.5316741197
 31
0.0
  0
LINE
  5
9D
330
1F
100
AcDbEntity
  8
0
  6
Continuous
 62
     7
370
    25
100
AcDbLine
 10
6273.9454600094
 20
5258.1215105085
 30
0.0
 11
6274.962934586
 21
5258.1229223935
 31
0.0
  0
LINE
  5
9E
330
1F
100
AcDbEntity
  8
0
  6
Continuous
 62
     7
370
    25
100
AcDbLine
 10
6273.9440820085
 20
5259.1749182968
 30
0.0
 11
6273.9454600094
 21
5258.1215105085
 31
0.0
  0
LINE
  5
9F
330
1F
100
AcDbEntity
  8
0
  6
Continuous
 62
     7
370
    25
100
AcDbLine
 10
6274.9897374094
 20
5259.1763301818
 30
0.0
 11
6273.9440820085
 21
5259.1749182968
 31
0.0
  0
LINE
  5
A0
330
1F
100
AcDbEntity
  8
0
  6
Continuous
 62
     7
370
    25
100
AcDbLine
 10
6274.9889794293
 20
5259.7718141107
 30
0.0
 11
6274.9897374094
 21
5259.1763301818
 31
0.0
  0
LINE
  5
A1
330
1F
100
AcDbEntity
  8
0
  6
Continuous
 62
     7
370
    25
100
AcDbLine
 10
6273.3796376058
 20
5259.7689903407
 30
0.0
 11
6274.9889794293
 21
5259.7718141107
 31
0.0
  0
LINE
  5
A2
330
1F
100
AcDbEntity
  8
0
  6
Continuous
 62
     7
370
    25
100
AcDbLine
 10
6273.3824625982
 20
5258.1102452306
 30
0.0
 11
6273.3796376058
 21
5259.7689903407
 31
0.0
  0
LINE
  5
A3
330
1F
100
AcDbEntity
  8
0
  6
Continuous
 62
     7
370
    25
100
AcDbLine
 10
6272.9351513924
 20
5258.1095225243
 30
0.0
 11
6273.3824625982
 21
5258.1102452306
 31
0.0
  0
LINE
  5
A4
330
1F
100
AcDbEntity
  8
0
  6
Continuous
 62
     7
370
    25
100
AcDbLine
 10
6272.9295014076
 20
5259.768301162
 30
0.0
 11
6272.9351513924
 21
5258.1095225243
 31
0.0
  0
LINE
  5
A5
330
1F
100
AcDbEntity
  8
0
  6
Continuous
 62
     7
370
    25
100
AcDbLine
 10
6272.8053055841
 20
5259.768301162
 30
0.0
 11
6272.9295014076
 21
5259.768301162
 31
0.0
  0
LINE
  5
A6
330
1F
100
AcDbEntity
  8
0
  6
Continuous
 62
     7
370
    25
100
AcDbLine
 10
6272.2768624451
 20
5259.7675784556
 30
0.0
 11
6272.8053055841
 21
5259.768301162
 31
0.0
  0
LINE
  5
A7
330
1F
100
AcDbEntity
  8
0
  6
Continuous
 62
     7
370
    25
100
AcDbLine
 10
6272.2789639745
 20
5258.3670443921
 30
0.0
 11
6272.2768624451
 21
5259.7675784556
 31
0.0
  0
LINE
  5
A8
330
1F
100
AcDbEntity
  8
0
  6
Continuous
 62
     7
370
    25
100
AcDbLine
 10
6270.4579210047
 20
5259.817668709
 30
0.0
 11
6272.2789639745
 21
5258.3670443921
 31
0.0
  0
LINE
  5
A9
330
1F
100
AcDbEntity
  8
0
  6
Continuous
 62
     7
370
    25
100
AcDbLine
 10
6270.4685317956
 20
5255.6661902992
 30
0.0
 11
6270.4579210047
 21
5259.817668709
 31
0.0
  0
LINE
  5
AA
330
1F
100
AcDbEntity
  8
0
  6
Continuous
 62
     7
370
    25
100
AcDbLine
 10
6271.052716919
 20
5255.6676021843
 30
0.0
 11
6270.4685317956
 21
5255.6661902992
 31
0.0
  0
LINE
  5
AB
330
1F
100
AcDbEntity
  8
0
  6
Continuous
 62
     7
370
    25
100
AcDbLine
 10
6271.0562307991
 20
5258.4503120808
 30
0.0
 11
6271.052716919
 21
5255.6676021843
 31
0.0
  0
LINE
  5
AC
330
1F
100
AcDbEntity
  8
0
  6
Continuous
 62
     7
370
    25
100
AcDbLine
 10
6272.2909530064
 20
5257.5126229851
 30
0.0
 11
6271.0562307991
 21
5258.4503120808
 31
0.0
  0
LINE
  5
AD
330
1F
100
AcDbEntity
  8
0
  6
Continuous
 62
     7
370
    25
100
AcDbLine
 10
6272.293778057
 20
5255.6591271488
 30
0.0
 11
6272.2909530064
 21
5257.5126229851
 31
0.0
  0
LINE
  5
AE
330
1F
100
AcDbEntity
  8
0
  6
Continuous
 62
     7
370
    25
100
AcDbLine
 10
6272.810955569
 20
5255.6661902992
 30
0.0
 11
6272.293778057
 21
5255.6591271488
 31
0.0
  0
LINE
  5
AF
330
1F
100
AcDbEntity
  8
0
  6
Continuous
 62
     7
370
    25
100
AcDbLine
 10
6272.9252640063
 20
5255.6704296796
 30
0.0
 11
6272.810955569
 21
5255.6661902992
 31
0.0
  0
LINE
  5
B0
330
1F
100
AcDbEntity
  8
0
  6
Continuous
 62
     7
370
    25
100
AcDbLine
 10
6272.9118623909
 20
5257.5246146946
 30
0.0
 11
6272.9252640063
 21
5255.6704296796
 31
0.0
  0
LINE
  5
B1
330
1F
100
AcDbEntity
  8
0
  6
Continuous
 62
     7
370
    25
100
AcDbLine
 10
6273.3972763897
 20
5257.5253374009
 30
0.0
 11
6272.9118623909
 21
5257.5246146946
 31
0.0
  0
LINE
  5
B2
330
1F
100
AcDbEntity
  8
0
  6
Continuous
 62
     7
370
    25
100
AcDbLine
 10
6273.4001013821
 20
5255.6817284851
 30
0.0
 11
6273.3972763897
 21
5257.5253374009
 31
0.0
  0
LINE
  5
B3
330
1F
100
AcDbEntity
  8
0
  6
Continuous
 62
     7
370
    25
100
AcDbLine
 10
6274.9671375866
 20
5255.6838295488
 30
0.0
 11
6273.4001013821
 21
5255.6817284851
 31
0.0
  0
LINE
  5
B4
330
1F
100
AcDbEntity
  8
0
  6
Continuous
 62
     7
370
    25
100
AcDbLine
 10
6274.9657595784
 20
5256.2835528581
 30
0.0
 11
6274.9671375866
 21
5255.6838295488
 31
0.0
  0
LINE
  5
B5
330
1F
100
AcDbEntity
  8
0
  6
Continuous
 62
     7
370
    25
100
AcDbLine
 10
6273.9094932047
 20
5256.2814517943
 30
0.0
 11
6274.9657595784
 21
5256.2835528581
 31
0.0
  0
LINE
  5
B6
330
1F
100
AcDbEntity
  8
0
  6
Continuous
 62
     7
370
    25
100
AcDbLine
 10
6273.907426207
 20
5257.5366026787
 30
0.0
 11
6273.9094932047
 21
5256.2814517943
 31
0.0
  0
SPLINE
  5
B7
330
1F
100
AcDbEntity
  8
0
  6
Continuous
 62
     7
370
    25
100
AcDbSpline
210
0.0
220
0.0
230
1.0
 70
     8
 71
     3
 72
    11
 73
     7
 74
     0
 42
0.000000001
 43
0.00000001
 40
0.0
 40
0.0
 40
0.0
 40
0.0
 40
0.2915811954791246
 40
0.5638550240122219
 40
0.7770140463417382
 40
1.0
 40
1.0
 40
1.0
 40
1.0
 10
6270.005683102453
 20
5258.870819124416
 30
0.0
 10
6269.990732988145
 20
5259.019778077316
 30
0.0
 10
6269.961822697658
 20
5259.307832503549
 30
0.0
 10
6269.711213474787
 20
5259.632167529086
 30
0.0
 10
6269.396541805778
 20
5259.821028651295
 30
0.0
 10
6269.174471503587
 20
5259.838865667429
 30
0.0
 10
6269.060934581602
 20
5259.847985121444
 30
0.0
  0
LINE
  5
B8
330
1F
100
AcDbEntity
  8
0
  6
Continuous
 62
     7
370
    25
100
AcDbLine
 10
6269.0609345816
 20
5259.8479851214
 30
0.0
 11
6269.01153211
 21
5259.843782994
 31
0.0
  0
LINE
  5
B9
330
1F
100
AcDbEntity
  8
0
  6
Continuous
 62
     7
370
    25
100
AcDbLine
 10
6269.01153211
 20
5259.843782994
 30
0.0
 11
6268.9798028812
 21
5259.843782994
 31
0.0
  0
SPLINE
  5
BA
330
1F
100
AcDbEntity
  8
0
  6
Continuous
 62
     7
370
    25
100
AcDbSpline
210
0.0
220
0.0
230
1.0
 70
     8
 71
     3
 72
    11
 73
     7
 74
     0
 42
0.000000001
 43
0.00000001
 40
0.0
 40
0.0
 40
0.0
 40
0.0
 40
0.2768008280264098
 40
0.5480668871616152
 40
0.7687902338100191
 40
1.0
 40
1.0
 40
1.0
 40
1.0
 10
6268.979802881176
 20
5259.843782993988
 30
0.0
 10
6268.836726169207
 20
5259.820787798448
 30
0.0
 10
6268.553433634599
 20
5259.77525720763
 30
0.0
 10
6268.25244873845
 20
5259.491758422293
 30
0.0
 10
6268.074935677268
 20
5259.159072741075
 30
0.0
 10
6268.050876802536
 20
5258.926352056009
 30
0.0
 10
6268.038568240398
 20
5258.807291748956
 30
0.0
  0
LINE
  5
BB
330
1F
100
AcDbEntity
  8
0
  6
Continuous
 62
     7
370
    25
100
AcDbLine
 10
6268.0385682404
 20
5258.807291749
 30
0.0
 11
6268.0287153132
 21
5258.0911605684
 31
0.0
  0
LINE
  5
BC
330
1F
100
AcDbEntity
  8
0
  6
Continuous
 62
     7
370
    25
100
AcDbLine
 10
6268.0287153132
 20
5258.0911605684
 30
0.0
 11
6267.5644542694
 21
5258.0904713897
 31
0.0
  0
LINE
  5
BD
330
1F
100
AcDbEntity
  8
0
  6
Continuous
 62
     7
370
    25
100
AcDbLine
 10
6267.5644542694
 20
5258.0904713897
 30
0.0
 11
6267.753521134
 21
5257.5203753142
 31
0.0
  0
LINE
  5
BE
330
1F
100
AcDbEntity
  8
0
  6
Continuous
 62
     7
370
    25
100
AcDbLine
 10
6267.753521134
 20
5257.5203753142
 30
0.0
 11
6268.0011886775
 21
5257.5168623654
 31
0.0
  0
LINE
  5
BF
330
1F
100
AcDbEntity
  8
0
  6
Continuous
 62
     7
370
    25
100
AcDbLine
 10
6268.0011886775
 20
5257.5168623654
 30
0.0
 11
6268.0040138446
 21
5255.6661902992
 31
0.0
  0
LINE
  5
C0
330
1F
100
AcDbEntity
  8
0
  6
Continuous
 62
     7
370
    25
100
AcDbLine
 10
6268.0040138446
 20
5255.6661902992
 30
0.0
 11
6268.5500957675
 21
5255.6739426283
 31
0.0
  0
LINE
  5
C1
330
1F
100
AcDbEntity
  8
0
  6
Continuous
 62
     7
370
    25
100
AcDbLine
 10
6268.5500957675
 20
5255.6739426283
 30
0.0
 11
6268.5472710662
 21
5257.5104883937
 31
0.0
  0
LINE
  5
C2
330
1F
100
AcDbEntity
  8
0
  6
Continuous
 62
     7
370
    25
100
AcDbLine
 10
6268.5472710662
 20
5257.5104883937
 30
0.0
 11
6269.0157696277
 21
5257.5147277741
 31
0.0
  0
LINE
  5
C3
330
1F
100
AcDbEntity
  8
0
  6
Continuous
 62
     7
370
    25
100
AcDbLine
 10
6269.0157696277
 20
5257.5147277741
 30
0.0
 11
6269.4475778051
 21
5257.5189634292
 31
0.0
  0
LINE
  5
C4
330
1F
100
AcDbEntity
  8
0
  6
Continuous
 62
     7
370
    25
100
AcDbLine
 10
6269.4475778051
 20
5257.5189634292
 30
0.0
 11
6269.4433402874
 21
5255.668291363
 31
0.0
  0
LINE
  5
C5
330
1F
100
AcDbEntity
  8
0
  6
Continuous
 62
     7
370
    25
100
AcDbLine
 10
6269.4433402874
 20
5255.668291363
 30
0.0
 11
6270.0035471141
 21
5255.6760436921
 31
0.0
  0
LINE
  5
C6
330
1F
100
AcDbEntity
  8
0
  6
Continuous
 62
     7
370
    25
100
AcDbLine
 10
6270.0035471141
 20
5255.6760436921
 30
0.0
 11
6270.0056831025
 21
5258.8708191244
 31
0.0
  0
LINE
  5
C7
330
1F
100
AcDbEntity
  8
0
  6
Continuous
 62
     7
370
    25
100
AcDbLine
 10
6275.9746901363
 20
5259.7732259957
 30
0.0
 11
6275.9768261246
 21
5256.196045789
 31
0.0
  0
LINE
  5
C8
330
1F
100
AcDbEntity
  8
0
  6
Continuous
 62
     7
370
    25
100
AcDbLine
 10
6275.3686290605
 20
5259.7689903407
 30
0.0
 11
6275.9746901363
 21
5259.7732259957
 31
0.0
  0
LINE
  5
C9
330
1F
100
AcDbEntity
  8
0
  6
Continuous
 62
     7
370
    25
100
AcDbLine
 10
6275.3819269499
 20
5255.6774555771
 30
0.0
 11
6275.3686290605
 21
5259.7689903407
 31
0.0
  0
LINE
  5
CA
330
1F
100
AcDbEntity
  8
0
  6
Continuous
 62
     7
370
    25
100
AcDbLine
 10
6277.1366519526
 20
5255.6767663984
 30
0.0
 11
6275.3819269499
 21
5255.6774555771
 31
0.0
  0
LINE
  5
CB
330
1F
100
AcDbEntity
  8
0
  6
Continuous
 62
     7
370
    25
100
AcDbLine
 10
6277.2319434814
 20
5255.6767663984
 30
0.0
 11
6277.1366519526
 21
5255.6767663984
 31
0.0
  0
LINE
  5
CC
330
1F
100
AcDbEntity
  8
0
  6
Continuous
 62
     7
370
    25
100
AcDbLine
 10
6277.2347684156
 20
5256.2016970543
 30
0.0
 11
6277.2319434814
 21
5255.6767663984
 31
0.0
  0
LINE
  5
CD
330
1F
100
AcDbEntity
  8
0
  6
Continuous
 62
     7
370
    25
100
AcDbLine
 10
6277.1360316917
 20
5256.2010078756
 30
0.0
 11
6277.2347684156
 21
5256.2016970543
 31
0.0
  0
LINE
  5
CE
330
1F
100
AcDbEntity
  8
0
  6
Continuous
 62
     7
370
    25
100
AcDbLine
 10
6275.9768261246
 20
5256.196045789
 30
0.0
 11
6277.1360316917
 21
5256.2010078756
 31
0.0
  0
SPLINE
  5
CF
330
1F
100
AcDbEntity
  8
0
  6
Continuous
 62
     7
370
    25
100
AcDbSpline
210
0.0
220
0.0
230
1.0
 70
     8
 71
     3
 72
    11
 73
     7
 74
     0
 42
0.000000001
 43
0.00000001
 40
0.0
 40
0.0
 40
0.0
 40
0.0
 40
0.2906604077414751
 40
0.5641193149125674
 40
0.7779534318670921
 40
1.0
 40
1.0
 40
1.0
 40
1.0
 10
6279.478421122575
 20
5258.874332073167
 30
0.0
 10
6279.462682423722
 20
5259.023858762725
 30
0.0
 10
6279.432136453999
 20
5259.314063040391
 30
0.0
 10
6279.176069195032
 20
5259.638476095065
 30
0.0
 10
6278.857991242526
 20
5259.827623591432
 30
0.0
 10
6278.634249812595
 20
5259.843465254669
 30
0.0
 10
6278.520271335537
 20
5259.851535323099
 30
0.0
  0
LINE
  5
D0
330
1F
100
AcDbEntity
  8
0
  6
Continuous
 62
     7
370
    25
100
AcDbLine
 10
6278.5202713355
 20
5259.8515353231
 30
0.0
 11
6278.4419987954
 21
5259.8515353231
 31
0.0
  0
SPLINE
  5
D1
330
1F
100
AcDbEntity
  8
0
  6
Continuous
 62
     7
370
    25
100
AcDbSpline
210
0.0
220
0.0
230
1.0
 70
     8
 71
     3
 72
    11
 73
     7
 74
     0
 42
0.000000001
 43
0.00000001
 40
0.0
 40
0.0
 40
0.0
 40
0.0
 40
0.2758009930336169
 40
0.5480677340720457
 40
0.7692478253027711
 40
1.0
 40
1.0
 40
1.0
 40
1.0
 10
6278.441998795414
 20
5259.851535323099
 30
0.0
 10
6278.299093635464
 20
5259.828164018292
 30
0.0
 10
6278.015114573824
 20
5259.78172090028
 30
0.0
 10
6277.712934126629
 20
5259.497692677344
 30
0.0
 10
6277.532679821357
 20
5259.164377897024
 30
0.0
 10
6277.508746669246
 20
5258.930818030184
 30
0.0
 10
6277.496526636923
 20
5258.811564656929
 30
0.0
  0
LINE
  5
D2
330
1F
100
AcDbEntity
  8
0
  6
Continuous
 62
     7
370
    25
100
AcDbLine
 10
6277.4965266369
 20
5258.8115646569
 30
0.0
 11
6277.4873626556
 21
5258.0947070448
 31
0.0
  0
LINE
  5
D3
330
1F
100
AcDbEntity
  8
0
  6
Continuous
 62
     7
370
    25
100
AcDbLine
 10
6277.4873626556
 20
5258.0947070448
 30
0.0
 11
6277.1332069904
 21
5258.0947070448
 31
0.0
  0
LINE
  5
D4
330
1F
100
AcDbEntity
  8
0
  6
Continuous
 62
     7
370
    25
100
AcDbLine
 10
6277.1332069904
 20
5258.0947070448
 30
0.0
 11
6277.0337126356
 21
5258.0939843385
 31
0.0
  0
LINE
  5
D5
330
1F
100
AcDbEntity
  8
0
  6
Continuous
 62
     7
370
    25
100
AcDbLine
 10
6277.0337126356
 20
5258.0939843385
 30
0.0
 11
6277.1338959362
 21
5257.7863722174
 31
0.0
  0
LINE
  5
D6
330
1F
100
AcDbEntity
  8
0
  6
Continuous
 62
     7
370
    25
100
AcDbLine
 10
6277.1338959362
 20
5257.7863722174
 30
0.0
 11
6277.2185764413
 21
5257.5239255158
 31
0.0
  0
LINE
  5
D7
330
1F
100
AcDbEntity
  8
0
  6
Continuous
 62
     7
370
    25
100
AcDbLine
 10
6277.2185764413
 20
5257.5239255158
 30
0.0
 11
6277.4633848246
 21
5257.534501615
 31
0.0
  0
LINE
  5
D8
330
1F
100
AcDbEntity
  8
0
  6
Continuous
 62
     7
370
    25
100
AcDbLine
 10
6277.4633848246
 20
5257.534501615
 30
0.0
 11
6277.4626958787
 21
5255.6774555771
 31
0.0
  0
LINE
  5
D9
330
1F
100
AcDbEntity
  8
0
  6
Continuous
 62
     7
370
    25
100
AcDbLine
 10
6277.4626958787
 20
5255.6774555771
 30
0.0
 11
6278.0193543665
 21
5255.6781820087
 31
0.0
  0
LINE
  5
DA
330
1F
100
AcDbEntity
  8
0
  6
Continuous
 62
     7
370
    25
100
AcDbLine
 10
6278.0193543665
 20
5255.6781820087
 30
0.0
 11
6278.0235574253
 21
5257.5210980205
 31
0.0
  0
LINE
  5
DB
330
1F
100
AcDbEntity
  8
0
  6
Continuous
 62
     7
370
    25
100
AcDbLine
 10
6278.0235574253
 20
5257.5210980205
 30
0.0
 11
6278.4737624831
 21
5257.5217871992
 31
0.0
  0
LINE
  5
DC
330
1F
100
AcDbEntity
  8
0
  6
Continuous
 62
     7
370
    25
100
AcDbLine
 10
6278.4737624831
 20
5257.5217871992
 30
0.0
 11
6278.9062598392
 21
5257.5225136308
 31
0.0
  0
LINE
  5
DD
330
1F
100
AcDbEntity
  8
0
  6
Continuous
 62
     7
370
    25
100
AcDbLine
 10
6278.9062598392
 20
5257.5225136308
 30
0.0
 11
6278.9090845406
 21
5255.6795938937
 31
0.0
  0
LINE
  5
DE
330
1F
100
AcDbEntity
  8
0
  6
Continuous
 62
     7
370
    25
100
AcDbLine
 10
6278.9090845406
 20
5255.6795938937
 30
0.0
 11
6279.4727712542
 21
5255.6802830724
 31
0.0
  0
LINE
  5
DF
330
1F
100
AcDbEntity
  8
0
  6
Continuous
 62
     7
370
    25
100
AcDbLine
 10
6279.4727712542
 20
5255.6802830724
 30
0.0
 11
6279.4784211226
 21
5258.8743320732
 31
0.0
  0
SPLINE
  5
E0
330
1F
100
AcDbEntity
  8
0
  6
Continuous
 62
     7
370
    25
100
AcDbSpline
210
0.0
220
0.0
230
1.0
 70
     8
 71
     3
 72
    11
 73
     7
 74
     0
 42
0.000000001
 43
0.00000001
 40
0.0
 40
0.0
 40
0.0
 40
0.0
 40
0.2839567006045017
 40
0.5588558992753152
 40
0.7763271948486222
 40
1.0
 40
1.0
 40
1.0
 40
1.0
 10
6284.945925851161
 20
5260.93908167167
 30
0.0
 10
6284.936775193627
 20
5261.00790559391
 30
0.0
 10
6284.918765761435
 20
5261.143358129008
 30
0.0
 10
6284.794503319345
 20
5261.293067514036
 30
0.0
 10
6284.644412493231
 20
5261.384414524423
 30
0.0
 10
6284.537974006224
 20
5261.396655273779
 30
0.0
 10
6284.484006617958
 20
5261.402861687377
 30
0.0
  0
LINE
  5
E1
330
1F
100
AcDbEntity
  8
0
  6
Continuous
 62
     7
370
    25
100
AcDbLine
 10
6284.484006618
 20
5261.4028616874
 30
0.0
 11
6284.4806994915
 21
5261.4028616874
 31
0.0
  0
SPLINE
  5
E2
330
1F
100
AcDbEntity
  8
0
  6
Continuous
 62
     7
370
    25
100
AcDbSpline
210
0.0
220
0.0
230
1.0
 70
     8
 71
     3
 72
    11
 73
     7
 74
     0
 42
0.000000001
 43
0.00000001
 40
0.0
 40
0.0
 40
0.0
 40
0.0
 40
0.2832716371748035
 40
0.5568121442760613
 40
0.7742422059079758
 40
0.9999999999999999
 40
0.9999999999999999
 40
0.9999999999999999
 40
0.9999999999999999
 10
6284.480699491495
 20
5261.402861687377
 30
0.0
 10
6284.412071595269
 20
5261.393771455693
 30
0.0
 10
6284.277173352592
 20
5261.375903265827
 30
0.0
 10
6284.128616008335
 20
5261.250894788678
 30
0.0
 10
6284.039640525932
 20
5261.09929570306
 30
0.0
 10
6284.029199029517
 20
5260.992260213282
 30
0.0
 10
6284.023880180711
 20
5260.937736841873
 30
0.0
  0
SPLINE
  5
E3
330
1F
100
AcDbEntity
  8
0
  6
Continuous
 62
     7
370
    25
100
AcDbSpline
210
0.0
220
0.0
230
1.0
 70
     8
 71
     3
 72
    11
 73
     7
 74
     0
 42
0.000000001
 43
0.00000001
 40
0.0
 40
0.0
 40
0.0
 40
0.0
 40
0.2829551731650246
 40
0.5566071876812383
 40
0.7737538717208786
 40
1.0
 40
1.0
 40
1.0
 40
1.0
 10
6284.023880180711
 20
5260.937736841873
 30
0.0
 10
6284.03270838131
 20
5260.869733306947
 30
0.0
 10
6284.050074523983
 20
5260.735962095401
 30
0.0
 10
6284.171792523719
 20
5260.587029008536
 30
0.0
 10
6284.321503697771
 20
5260.496857696266
 30
0.0
 10
6284.427825806808
 20
5260.486304354226
 30
0.0
 10
6284.482077848906
 20
5260.480919393734
 30
0.0
  0
LINE
  5
E4
330
1F
100
AcDbEntity
  8
0
  6
Continuous
 62
     7
370
    25
100
AcDbLine
 10
6284.4820778489
 20
5260.4809193937
 30
0.0
 11
6284.4855228111
 21
5260.4809193937
 31
0.0
  0
SPLINE
  5
E5
330
1F
100
AcDbEntity
  8
0
  6
Continuous
 62
     7
370
    25
100
AcDbSpline
210
0.0
220
0.0
230
1.0
 70
     8
 71
     3
 72
    11
 73
     7
 74
     0
 42
0.000000001
 43
0.00000001
 40
0.0
 40
0.0
 40
0.0
 40
0.0
 40
0.2833114800865339
 40
0.5586248592617141
 40
0.7759891153001615
 40
1.0
 40
1.0
 40
1.0
 40
1.0
 10
6284.485522811109
 20
5260.480919393734
 30
0.0
 10
6284.553736236873
 20
5260.489954672932
 30
0.0
 10
6284.688237370945
 20
5260.507770158452
 30
0.0
 10
6284.837783902869
 20
5260.629991218511
 30
0.0
 10
6284.929398756857
 20
5260.779190159144
 30
0.0
 10
6284.940361789286
 20
5260.885252108368
 30
0.0
 10
6284.945925851161
 20
5260.93908167167
 30
0.0
  0
SPLINE
  5
E6
330
1F
100
AcDbEntity
  8
0
  6
Continuous
 62
     7
370
    25
100
AcDbSpline
210
0.0
220
0.0
230
1.0
 70
     8
 71
     3
 72
    10
 73
     6
 74
     0
 42
0.000000001
 43
0.00000001
 40
0.0
 40
0.0
 40
0.0
 40
0.0
 40
0.2894642551924632
 40
0.5538122344484026
 40
0.9999999999999999
 40
0.9999999999999999
 40
0.9999999999999999
 40
0.9999999999999999
 10
6283.614947614068
 20
5257.207525434927
 30
0.0
 10
6283.597290605011
 20
5257.411003679572
 30
0.0
 10
6283.563508652787
 20
5257.800304739399
 30
0.0
 10
6283.25206903139
 20
5258.443165462596
 30
0.0
 10
6282.909226795996
 20
5258.806949551173
 30
0.0
 10
6282.693935711676
 20
5259.035391273931
 30
0.0
  0
LINE
  5
E7
330
1F
100
AcDbEntity
  8
0
  6
Continuous
 62
     7
370
    25
100
AcDbLine
 10
6282.6939357117
 20
5259.0353912739
 30
0.0
 11
6282.6903529137
 21
5259.0318075447
 31
0.0
  0
SPLINE
  5
E8
330
1F
100
AcDbEntity
  8
0
  6
Continuous
 62
     7
370
    25
100
AcDbSpline
210
0.0
220
0.0
230
1.0
 70
     8
 71
     3
 72
     9
 73
     5
 74
     0
 42
0.000000001
 43
0.00000001
 40
0.0
 40
0.0
 40
0.0
 40
0.0
 40
0.5121352006992139
 40
1.0
 40
1.0
 40
1.0
 40
1.0
 10
6282.690352913732
 20
5259.031807544664
 30
0.0
 10
6282.675027157052
 20
5259.016343450722
 30
0.0
 10
6282.645101940704
 20
5258.98614811574
 30
0.0
 10
6282.623417217606
 20
5258.949594413174
 30
0.0
 10
6282.612838004524
 20
5258.931761148408
 30
0.0
  0
LINE
  5
E9
330
1F
100
AcDbEntity
  8
0
  6
Continuous
 62
     7
370
    25
100
AcDbLine
 10
6282.6128380045
 20
5258.9317611484
 30
0.0
 11
6282.5096232489
 21
5259.0198530881
 31
0.0
  0
SPLINE
  5
EA
330
1F
100
AcDbEntity
  8
0
  6
Continuous
 62
     7
370
    25
100
AcDbSpline
210
0.0
220
0.0
230
1.0
 70
     8
 71
     3
 72
     9
 73
     5
 74
     0
 42
0.000000001
 43
0.00000001
 40
0.0
 40
0.0
 40
0.0
 40
0.0
 40
0.5720474877061645
 40
1.0
 40
1.0
 40
1.0
 40
1.0
 10
6282.50962324887
 20
5259.019853088096
 30
0.0
 10
6282.539913869849
 20
5259.059354309466
 30
0.0
 10
6282.592865104899
 20
5259.128406656024
 30
0.0
 10
6282.660943095248
 20
5259.182402656601
 30
0.0
 10
6282.69007724225
 20
5259.205510380701
 30
0.0
  0
SPLINE
  5
EB
330
1F
100
AcDbEntity
  8
0
  6
Continuous
 62
     7
370
    25
100
AcDbSpline
210
0.0
220
0.0
230
1.0
 70
     8
 71
     3
 72
     9
 73
     5
 74
     0
 42
0.000000001
 43
0.00000001
 40
0.0
 40
0.0
 40
0.0
 40
0.0
 40
0.4926520038291811
 40
1.0
 40
1.0
 40
1.0
 40
1.0
 10
6282.69007724225
 20
5259.205510380701
 30
0.0
 10
6282.801737554624
 20
5259.259744091641
 30
0.0
 10
6283.028389047987
 20
5259.369829325271
 30
0.0
 10
6283.280435271423
 20
5259.374317348212
 30
0.0
 10
6283.408310417825
 20
5259.376594337657
 30
0.0
  0
LINE
  5
EC
330
1F
100
AcDbEntity
  8
0
  6
Continuous
 62
     7
370
    25
100
AcDbLine
 10
6283.4083104178
 20
5259.3765943377
 30
0.0
 11
6283.4178881392
 21
5259.3728727726
 31
0.0
  0
LINE
  5
ED
330
1F
100
AcDbEntity
  8
0
  6
Continuous
 62
     7
370
    25
100
AcDbLine
 10
6283.4178881392
 20
5259.3728727726
 30
0.0
 11
6283.4220222801
 21
5259.3707381813
 31
0.0
  0
LINE
  5
EE
330
1F
100
AcDbEntity
  8
0
  6
Continuous
 62
     7
370
    25
100
AcDbLine
 10
6283.4220222801
 20
5259.3707381813
 30
0.0
 11
6283.4258118316
 21
5259.3786618738
 31
0.0
  0
SPLINE
  5
EF
330
1F
100
AcDbEntity
  8
0
  6
Continuous
 62
     7
370
    25
100
AcDbSpline
210
0.0
220
0.0
230
1.0
 70
     8
 71
     3
 72
    10
 73
     6
 74
     0
 42
0.000000001
 43
0.00000001
 40
0.0
 40
0.0
 40
0.0
 40
0.0
 40
0.2923599207797679
 40
0.5727220238299922
 40
1.0
 40
1.0
 40
1.0
 40
1.0
 10
6283.425811831647
 20
5259.378661873773
 30
0.0
 10
6283.432139967525
 20
5259.397724064121
 30
0.0
 10
6283.444536546296
 20
5259.435066173822
 30
0.0
 10
6283.437966782112
 20
5259.504637933691
 30
0.0
 10
6283.417929160428
 20
5259.548679136728
 30
0.0
 10
6283.405830305809
 20
5259.575271519855
 30
0.0
  0
SPLINE
  5
F0
330
1F
100
AcDbEntity
  8
0
  6
Continuous
 62
     7
370
    25
100
AcDbSpline
210
0.0
220
0.0
230
1.0
 70
     8
 71
     3
 72
     9
 73
     5
 74
     0
 42
0.000000001
 43
0.00000001
 40
0.0
 40
0.0
 40
0.0
 40
0.0
 40
0.589559398472996
 40
1.0
 40
1.0
 40
1.0
 40
1.0
 10
6283.405830305809
 20
5259.575271519855
 30
0.0
 10
6283.374901447615
 20
5259.678518152806
 30
0.0
 10
6283.322440477144
 20
5259.853643226239
 30
0.0
 10
6283.225092961959
 20
5260.007909660001
 30
0.0
 10
6283.18513758927
 20
5260.07122686787
 30
0.0
  0
SPLINE
  5
F1
330
1F
100
AcDbEntity
  8
0
  6
Continuous
 62
     7
370
    25
100
AcDbSpline
210
0.0
220
0.0
230
1.0
 70
     8
 71
     3
 72
     9
 73
     5
 74
     0
 42
0.000000001
 43
0.00000001
 40
0.0
 40
0.0
 40
0.0
 40
0.0
 40
0.5628809093708889
 40
1.0
 40
1.0
 40
1.0
 40
1.0
 10
6283.18513758927
 20
5260.07122686787
 30
0.0
 10
6283.313556431993
 20
5260.304374621094
 30
0.0
 10
6283.541702102922
 20
5260.718579027999
 30
0.0
 10
6283.568456626861
 20
5261.188758096823
 30
0.0
 10
6283.580151540035
 20
5261.39428234382
 30
0.0
  0
SPLINE
  5
F2
330
1F
100
AcDbEntity
  8
0
  6
Continuous
 62
     7
370
    25
100
AcDbSpline
210
0.0
220
0.0
230
1.0
 70
     8
 71
     3
 72
     9
 73
     5
 74
     0
 42
0.000000001
 43
0.00000001
 40
0.0
 40
0.0
 40
0.0
 40
0.0
 40
0.5629662516581865
 40
1.0
 40
1.0
 40
1.0
 40
1.0
 10
6283.580151540035
 20
5261.39428234382
 30
0.0
 10
6283.4079537098
 20
5261.371604474644
 30
0.0
 10
6283.102077771891
 20
5261.331321652878
 30
0.0
 10
6282.813266193804
 20
5261.223764864421
 30
0.0
 10
6282.687045787269
 20
5261.176758918003
 30
0.0
  0
SPLINE
  5
F3
330
1F
100
AcDbEntity
  8
0
  6
Continuous
 62
     7
370
    25
100
AcDbSpline
210
0.0
220
0.0
230
1.0
 70
     8
 71
     3
 72
     9
 73
     5
 74
     0
 42
0.000000001
 43
0.00000001
 40
0.0
 40
0.0
 40
0.0
 40
0.0
 40
0.5602725349954151
 40
1.0
 40
1.0
 40
1.0
 40
1.0
 10
6282.687045787269
 20
5261.176758918003
 30
0.0
 10
6282.648044568803
 20
5261.160230598741
 30
0.0
 10
6282.578433413463
 20
5261.130730099911
 30
0.0
 10
6282.511257239328
 20
5261.096059625979
 30
0.0
 10
6282.481718030566
 20
5261.080814066366
 30
0.0
  0
SPLINE
  5
F4
330
1F
100
AcDbEntity
  8
0
  6
Continuous
 62
     7
370
    25
100
AcDbSpline
210
0.0
220
0.0
230
1.0
 70
     8
 71
     3
 72
     9
 73
     5
 74
     0
 42
0.000000001
 43
0.00000001
 40
0.0
 40
0.0
 40
0.0
 40
0.0
 40
0.536633318308368
 40
1.0
 40
1.0
 40
1.0
 40
1.0
 10
6282.481718030566
 20
5261.080814066366
 30
0.0
 10
6282.470817102655
 20
5261.074681044306
 30
0.0
 10
6282.450503552341
 20
5261.063252342714
 30
0.0
 10
6282.430776483663
 20
5261.050839998947
 30
0.0
 10
6282.42163561731
 20
5261.045088532403
 30
0.0
  0
SPLINE
  5
F5
330
1F
100
AcDbEntity
  8
0
  6
Continuous
 62
     7
370
    25
100
AcDbSpline
210
0.0
220
0.0
230
1.0
 70
     8
 71
     3
 72
     9
 73
     5
 74
     0
 42
0.000000001
 43
0.00000001
 40
0.0
 40
0.0
 40
0.0
 40
0.0
 40
0.5640986948691488
 40
1.0
 40
1.0
 40
1.0
 40
1.0
 10
6282.42163561731
 20
5261.045088532403
 30
0.0
 10
6282.397749587367
 20
5261.031306063474
 30
0.0
 10
6282.355405880208
 20
5261.00687333733
 30
0.0
 10
6282.315252246937
 20
5260.979000006739
 30
0.0
 10
6282.29774922579
 20
5260.966849985555
 30
0.0
  0
SPLINE
  5
F6
330
1F
100
AcDbEntity
  8
0
  6
Continuous
 62
     7
370
    25
100
AcDbSpline
210
0.0
220
0.0
230
1.0
 70
     8
 71
     3
 72
     9
 73
     5
 74
     0
 42
0.000000001
 43
0.00000001
 40
0.0
 40
0.0
 40
0.0
 40
0.0
 40
0.5667384561911014
 40
1.0
 40
1.0
 40
1.0
 40
1.0
 10
6282.29774922579
 20
5260.966849985555
 30
0.0
 10
6282.255367173289
 20
5260.937372742801
 30
0.0
 10
6282.180584789918
 20
5260.885360668392
 30
0.0
 10
6282.113976742787
 20
5260.823283710632
 30
0.0
 10
6282.085118037457
 20
5260.796388152078
 30
0.0
  0
SPLINE
  5
F7
330
1F
100
AcDbEntity
  8
0
  6
Continuous
 62
     7
370
    25
100
AcDbSpline
210
0.0
220
0.0
230
1.0
 70
     8
 71
     3
 72
     9
 73
     5
 74
     0
 42
0.000000001
 43
0.00000001
 40
0.0
 40
0.0
 40
0.0
 40
0.0
 40
0.5054542108688418
 40
1.0
 40
1.0
 40
1.0
 40
1.0
 10
6282.085118037457
 20
5260.796388152078
 30
0.0
 10
6282.042384757216
 20
5260.803757715982
 30
0.0
 10
6281.957840441786
 20
5260.818337798108
 30
0.0
 10
6281.872055004826
 20
5260.81775686694
 30
0.0
 10
6281.829630178207
 20
5260.817469569877
 30
0.0
  0
LINE
  5
F8
330
1F
100
AcDbEntity
  8
0
  6
Continuous
 62
     7
370
    25
100
AcDbLine
 10
6281.8296301782
 20
5260.8174695699
 30
0.0
 11
6281.808270295
 21
5260.8137480049
 31
0.0
  0
SPLINE
  5
F9
330
1F
100
AcDbEntity
  8
0
  6
Continuous
 62
     7
370
    25
100
AcDbSpline
210
0.0
220
0.0
230
1.0
 70
     8
 71
     3
 72
    10
 73
     6
 74
     0
 42
0.000000001
 43
0.00000001
 40
0.0
 40
0.0
 40
0.0
 40
0.0
 40
0.6750825557810188
 40
0.89886077772927
 40
1.0
 40
1.0
 40
1.0
 40
1.0
 10
6281.808270294959
 20
5260.813748004869
 30
0.0
 10
6281.743533889189
 20
5260.811753179927
 30
0.0
 10
6281.657338481622
 20
5260.809097104927
 30
0.0
 10
6281.561382078771
 20
5260.801229973159
 30
0.0
 10
6281.530967924334
 20
5260.794199391937
 30
0.0
 10
6281.521500707412
 20
5260.792010935977
 30
0.0
  0
LINE
  5
FA
330
1F
100
AcDbEntity
  8
0
  6
Continuous
 62
     7
370
    25
100
AcDbLine
 10
6281.5215007074
 20
5260.792010936
 30
0.0
 11
6281.4928373925
 21
5260.8132674424
 31
0.0
  0
SPLINE
  5
FB
330
1F
100
AcDbEntity
  8
0
  6
Continuous
 62
     7
370
    25
100
AcDbSpline
210
0.0
220
0.0
230
1.0
 70
     8
 71
     3
 72
     9
 73
     5
 74
     0
 42
0.000000001
 43
0.00000001
 40
0.0
 40
0.0
 40
0.0
 40
0.0
 40
0.566162375089327
 40
1.0
 40
1.0
 40
1.0
 40
1.0
 10
6281.492837392533
 20
5260.813267442421
 30
0.0
 10
6281.364960491623
 20
5260.899052839917
 30
0.0
 10
6281.139094368164
 20
5261.050573677881
 30
0.0
 10
6280.890846827868
 20
5261.161260565761
 30
0.0
 10
6280.783147704596
 20
5261.209280702308
 30
0.0
  0
SPLINE
  5
FC
330
1F
100
AcDbEntity
  8
0
  6
Continuous
 62
     7
370
    25
100
AcDbSpline
210
0.0
220
0.0
230
1.0
 70
     8
 71
     3
 72
     9
 73
     5
 74
     0
 42
0.000000001
 43
0.00000001
 40
0.0
 40
0.0
 40
0.0
 40
0.0
 40
0.5589325648535722
 40
1.0
 40
1.0
 40
1.0
 40
1.0
 10
6280.783147704596
 20
5261.209280702308
 30
0.0
 10
6280.660853374533
 20
5261.254407821259
 30
0.0
 10
6280.442053580509
 20
5261.335145859776
 30
0.0
 10
6280.211328096406
 20
5261.367718855641
 30
0.0
 10
6280.109562598908
 20
5261.382085743383
 30
0.0
  0
LINE
  5
FD
330
1F
100
AcDbEntity
  8
0
  6
Continuous
 62
     7
370
    25
100
AcDbLine
 10
6280.1095625989
 20
5261.3820857434
 30
0.0
 11
6280.1095625989
 21
5261.3714090614
 31
0.0
  0
LINE
  5
FE
330
1F
100
AcDbEntity
  8
0
  6
Continuous
 62
     7
370
    25
100
AcDbLine
 10
6280.1095625989
 20
5261.3714090614
 30
0.0
 11
6280.1098382704
 21
5261.1870593457
 31
0.0
  0
SPLINE
  5
FF
330
1F
100
AcDbEntity
  8
0
  6
Continuous
 62
     7
370
    25
100
AcDbSpline
210
0.0
220
0.0
230
1.0
 70
     8
 71
     3
 72
     9
 73
     5
 74
     0
 42
0.000000001
 43
0.00000001
 40
0.0
 40
0.0
 40
0.0
 40
0.0
 40
0.5905059670900598
 40
1.0
 40
1.0
 40
1.0
 40
1.0
 10
6280.10983827039
 20
5261.187059345678
 30
0.0
 10
6280.144188572734
 20
5260.95377035607
 30
0.0
 10
6280.202359538413
 20
5260.558704086448
 30
0.0
 10
6280.389351365715
 20
5260.207451810739
 30
0.0
 10
6280.465923403198
 20
5260.06361609979
 30
0.0
  0
SPLINE
  5
100
330
1F
100
AcDbEntity
  8
0
  6
Continuous
 62
     7
370
    25
100
AcDbSpline
210
0.0
220
0.0
230
1.0
 70
     8
 71
     3
 72
     9
 73
     5
 74
     0
 42
0.000000001
 43
0.00000001
 40
0.0
 40
0.0
 40
0.0
 40
0.0
 40
0.5869417772985263
 40
1.0
 40
1.0
 40
1.0
 40
1.0
 10
6280.465923403198
 20
5260.06361609979
 30
0.0
 10
6280.416577801663
 20
5259.963739168881
 30
0.0
 10
6280.332505405656
 20
5259.793574197204
 30
0.0
 10
6280.286540950562
 20
5259.609681675386
 30
0.0
 10
6280.267554954434
 20
5259.533723357156
 30
0.0
  0
LINE
  5
101
330
1F
100
AcDbEntity
  8
0
  6
Continuous
 62
     7
370
    25
100
AcDbLine
 10
6280.2675549544
 20
5259.5337233572
 30
0.0
 11
6280.2485378131
 21
5259.4991712896
 31
0.0
  0
SPLINE
  5
102
330
1F
100
AcDbEntity
  8
0
  6
Continuous
 62
     7
370
    25
100
AcDbSpline
210
0.0
220
0.0
230
1.0
 70
     8
 71
     3
 72
    13
 73
     9
 74
     0
 42
0.000000001
 43
0.00000001
 40
0.0
 40
0.0
 40
0.0
 40
0.0
 40
0.7326177292451815
 40
0.9328403536022746
 40
0.9813323508467985
 40
0.9938091497362895
 40
0.9972630025795127
 40
1.0
 40
1.0
 40
1.0
 40
1.0
 10
6280.248537813121
 20
5259.499171289638
 30
0.0
 10
6280.244396422353
 20
5259.488133170446
 30
0.0
 10
6280.239123199669
 20
5259.474078360413
 30
0.0
 10
6280.235129112184
 20
5259.458835898306
 30
0.0
 10
6280.233822432215
 20
5259.454833792779
 30
0.0
 10
6280.233339105147
 20
5259.453914442339
 30
0.0
 10
6280.233151325019
 20
5259.45367727164
 30
0.0
 10
6280.233070673759
 20
5259.453618393207
 30
0.0
 10
6280.233035017544
 20
5259.453592362836
 30
0.0
  0
SPLINE
  5
103
330
1F
100
AcDbEntity
  8
0
  6
Continuous
 62
     7
370
    25
100
AcDbSpline
210
0.0
220
0.0
230
1.0
 70
     8
 71
     3
 72
     9
 73
     5
 74
     0
 42
0.000000001
 43
0.00000001
 40
0.0
 40
0.0
 40
0.0
 40
0.0
 40
0.5556315428669257
 40
1.0
 40
1.0
 40
1.0
 40
1.0
 10
6280.233035017544
 20
5259.453592362836
 30
0.0
 10
6280.244225359308
 20
5259.452278518103
 30
0.0
 10
6280.264365219809
 20
5259.449913921007
 30
0.0
 10
6280.284462503387
 20
5259.447212031535
 30
0.0
 10
6280.293393102283
 20
5259.446011397079
 30
0.0
  0
LINE
  5
104
330
1F
100
AcDbEntity
  8
0
  6
Continuous
 62
     7
370
    25
100
AcDbLine
 10
6280.2933931023
 20
5259.4460113971
 30
0.0
 11
6280.3086202264
 21
5259.4440481691
 31
0.0
  0
SPLINE
  5
105
330
1F
100
AcDbEntity
  8
0
  6
Continuous
 62
     7
370
    25
100
AcDbSpline
210
0.0
220
0.0
230
1.0
 70
     8
 71
     3
 72
     9
 73
     5
 74
     0
 42
0.000000001
 43
0.00000001
 40
0.0
 40
0.0
 40
0.0
 40
0.0
 40
0.572092439971682
 40
1.0
 40
1.0
 40
1.0
 40
1.0
 10
6280.308620226378
 20
5259.444048169092
 30
0.0
 10
6280.402302433165
 20
5259.428201610975
 30
0.0
 10
6280.566056051008
 20
5259.400502314479
 30
0.0
 10
6280.72011766161
 20
5259.338956042454
 30
0.0
 10
6280.786041789496
 20
5259.312619927362
 30
0.0
  0
SPLINE
  5
106
330
1F
100
AcDbEntity
  8
0
  6
Continuous
 62
     7
370
    25
100
AcDbSpline
210
0.0
220
0.0
230
1.0
 70
     8
 71
     3
 72
    12
 73
     8
 74
     0
 42
0.000000001
 43
0.00000001
 40
0.0
 40
0.0
 40
0.0
 40
0.0
 40
0.2827420489965694
 40
0.5397783457025012
 40
0.6766782574334498
 40
0.8265263230529206
 40
1.0
 40
1.0
 40
1.0
 40
1.0
 10
6280.786041789496
 20
5259.312619927362
 30
0.0
 10
6280.859563886851
 20
5259.273582655365
 30
0.0
 10
6280.999923752757
 20
5259.1990572207
 30
0.0
 10
6281.126450764692
 20
5259.035538669381
 30
0.0
 10
6281.167592243103
 20
5258.880173528072
 30
0.0
 10
6281.166436450234
 20
5258.743565094354
 30
0.0
 10
6281.138866757324
 20
5258.652709145023
 30
0.0
 10
6281.124074631179
 20
5258.603961679176
 30
0.0
  0
SPLINE
  5
107
330
1F
100
AcDbEntity
  8
0
  6
Continuous
 62
     7
370
    25
100
AcDbSpline
210
0.0
220
0.0
230
1.0
 70
     8
 71
     3
 72
     9
 73
     5
 74
     0
 42
0.000000001
 43
0.00000001
 40
0.0
 40
0.0
 40
0.0
 40
0.0
 40
0.5800891877157538
 40
1.0
 40
1.0
 40
1.0
 40
1.0
 10
6281.124074631179
 20
5258.603961679176
 30
0.0
 10
6281.066614382926
 20
5258.469866199968
 30
0.0
 10
6280.967560221135
 20
5258.238702644352
 30
0.0
 10
6280.841178085277
 20
5258.021387763444
 30
0.0
 10
6280.788108859951
 20
5257.93013489528
 30
0.0
  0
SPLINE
  5
108
330
1F
100
AcDbEntity
  8
0
  6
Continuous
 62
     7
370
    25
100
AcDbSpline
210
0.0
220
0.0
230
1.0
 70
     8
 71
     3
 72
     9
 73
     5
 74
     0
 42
0.000000001
 43
0.00000001
 40
0.0
 40
0.0
 40
0.0
 40
0.0
 40
0.460177987838565
 40
1.0
 40
1.0
 40
1.0
 40
1.0
 10
6280.788108859951
 20
5257.93013489528
 30
0.0
 10
6280.724647230669
 20
5257.789432985049
 30
0.0
 10
6280.586740527265
 20
5257.483677573121
 30
0.0
 10
6280.50434106896
 20
5257.158397884357
 30
0.0
 10
6280.459860027576
 20
5256.982804748252
 30
0.0
  0
SPLINE
  5
109
330
1F
100
AcDbEntity
  8
0
  6
Continuous
 62
     7
370
    25
100
AcDbSpline
210
0.0
220
0.0
230
1.0
 70
     8
 71
     3
 72
    10
 73
     6
 74
     0
 42
0.000000001
 43
0.00000001
 40
0.0
 40
0.0
 40
0.0
 40
0.0
 40
0.3076988338301881
 40
0.5881480959454466
 40
1.0
 40
1.0
 40
1.0
 40
1.0
 10
6280.459860027576
 20
5256.982804748252
 30
0.0
 10
6280.43690881342
 20
5256.835460200617
 30
0.0
 10
6280.393038926957
 20
5256.553819824989
 30
0.0
 10
6280.473565140553
 20
5256.063516692765
 30
0.0
 10
6280.672986446313
 20
5255.788798933231
 30
0.0
 10
6280.791622740025
 20
5255.625368568138
 30
0.0
  0
SPLINE
  5
10A
330
1F
100
AcDbEntity
  8
0
  6
Continuous
 62
     7
370
    25
100
AcDbSpline
210
0.0
220
0.0
230
1.0
 70
     8
 71
     3
 72
     9
 73
     5
 74
     0
 42
0.000000001
 43
0.00000001
 40
0.0
 40
0.0
 40
0.0
 40
0.0
 40
0.5544137553199076
 40
1.0
 40
1.0
 40
1.0
 40
1.0
 10
6280.791622740025
 20
5255.625368568138
 30
0.0
 10
6280.907548121141
 20
5255.52382176335
 30
0.0
 10
6281.116643548527
 20
5255.340661075486
 30
0.0
 10
6281.382790102371
 20
5255.263805836527
 30
0.0
 10
6281.501381345833
 20
5255.229560199216
 30
0.0
  0
SPLINE
  5
10B
330
1F
100
AcDbEntity
  8
0
  6
Continuous
 62
     7
370
    25
100
AcDbSpline
210
0.0
220
0.0
230
1.0
 70
     8
 71
     3
 72
     9
 73
     5
 74
     0
 42
0.000000001
 43
0.00000001
 40
0.0
 40
0.0
 40
0.0
 40
0.0
 40
0.5549135691520828
 40
1.0
 40
1.0
 40
1.0
 40
1.0
 10
6281.501381345833
 20
5255.229560199216
 30
0.0
 10
6281.56317344173
 20
5255.21804969358
 30
0.0
 10
6281.674527892826
 20
5255.19730681347
 30
0.0
 10
6281.787723420317
 20
5255.195357797091
 30
0.0
 10
6281.838105213636
 20
5255.194490316347
 30
0.0
  0
LINE
  5
10C
330
1F
100
AcDbEntity
  8
0
  6
Continuous
 62
     7
370
    25
100
AcDbLine
 10
6281.8381052136
 20
5255.1944903163
 30
0.0
 11
6281.8773101687
 21
5255.1945573716
 31
0.0
  0
SPLINE
  5
10D
330
1F
100
AcDbEntity
  8
0
  6
Continuous
 62
     7
370
    25
100
AcDbSpline
210
0.0
220
0.0
230
1.0
 70
     8
 71
     3
 72
     9
 73
     5
 74
     0
 42
0.000000001
 43
0.00000001
 40
0.0
 40
0.0
 40
0.0
 40
0.0
 40
0.5679554258350396
 40
1.0
 40
1.0
 40
1.0
 40
1.0
 10
6281.877310168737
 20
5255.194557371572
 30
0.0
 10
6281.959567314459
 20
5255.199412413425
 30
0.0
 10
6282.104397598635
 20
5255.207960693153
 30
0.0
 10
6282.245477995041
 20
5255.241375593541
 30
0.0
 10
6282.30643101483
 20
5255.25581231995
 30
0.0
  0
SPLINE
  5
10E
330
1F
100
AcDbEntity
  8
0
  6
Continuous
 62
     7
370
    25
100
AcDbSpline
210
0.0
220
0.0
230
1.0
 70
     8
 71
     3
 72
     9
 73
     5
 74
     0
 42
0.000000001
 43
0.00000001
 40
0.0
 40
0.0
 40
0.0
 40
0.0
 40
0.5670737073568091
 40
1.0
 40
1.0
 40
1.0
 40
1.0
 10
6282.30643101483
 20
5255.25581231995
 30
0.0
 10
6282.330116428733
 20
5255.261596772573
 30
0.0
 10
6282.371884215877
 20
5255.271797303032
 30
0.0
 10
6282.412710584492
 20
5255.285261719271
 30
0.0
 10
6282.430385392899
 20
5255.291090819076
 30
0.0
  0
SPLINE
  5
10F
330
1F
100
AcDbEntity
  8
0
  6
Continuous
 62
     7
370
    25
100
AcDbSpline
210
0.0
220
0.0
230
1.0
 70
     8
 71
     3
 72
     9
 73
     5
 74
     0
 42
0.000000001
 43
0.00000001
 40
0.0
 40
0.0
 40
0.0
 40
0.0
 40
0.5781361226430075
 40
1.0
 40
1.0
 40
1.0
 40
1.0
 10
6282.430385392899
 20
5255.291090819076
 30
0.0
 10
6282.442041063529
 20
5255.295055598997
 30
0.0
 10
6282.462201835661
 20
5255.301913464761
 30
0.0
 10
6282.482129825123
 20
5255.30941930235
 30
0.0
 10
6282.490536724025
 20
5255.312585744098
 30
0.0
  0
SPLINE
  5
110
330
1F
100
AcDbEntity
  8
0
  6
Continuous
 62
     7
370
    25
100
AcDbSpline
210
0.0
220
0.0
230
1.0
 70
     8
 71
     3
 72
     9
 73
     5
 74
     0
 42
0.000000001
 43
0.00000001
 40
0.0
 40
0.0
 40
0.0
 40
0.0
 40
0.5687952216295943
 40
1.0
 40
1.0
 40
1.0
 40
1.0
 10
6282.490536724025
 20
5255.312585744098
 30
0.0
 10
6282.52996642106
 20
5255.329008289043
 30
0.0
 10
6282.599287849114
 20
5255.357880797674
 30
0.0
 10
6282.666767103708
 20
5255.390815881474
 30
0.0
 10
6282.695864480728
 20
5255.405017646984
 30
0.0
  0
SPLINE
  5
111
330
1F
100
AcDbEntity
  8
0
  6
Continuous
 62
     7
370
    25
100
AcDbSpline
210
0.0
220
0.0
230
1.0
 70
     8
 71
     3
 72
    10
 73
     6
 74
     0
 42
0.000000001
 43
0.00000001
 40
0.0
 40
0.0
 40
0.0
 40
0.0
 40
0.2672151017103335
 40
0.5384846395309294
 40
1.0
 40
1.0
 40
1.0
 40
1.0
 10
6282.695864480728
 20
5255.405017646984
 30
0.0
 10
6282.830002131056
 20
5255.492922688286
 30
0.0
 10
6283.100312692929
 20
5255.670066547954
 30
0.0
 10
6283.466472384246
 20
5256.163509696667
 30
0.0
 10
6283.549158927989
 20
5256.599617929037
 30
0.0
 10
6283.601235751802
 20
5256.874283316568
 30
0.0
  0
SPLINE
  5
112
330
1F
100
AcDbEntity
  8
0
  6
Continuous
 62
     7
370
    25
100
AcDbSpline
210
0.0
220
0.0
230
1.0
 70
     8
 71
     3
 72
     9
 73
     5
 74
     0
 42
0.000000001
 43
0.00000001
 40
0.0
 40
0.0
 40
0.0
 40
0.0
 40
0.5721998172164013
 40
1.0
 40
1.0
 40
1.0
 40
1.0
 10
6283.601235751802
 20
5256.874283316568
 30
0.0
 10
6283.605314337812
 20
5256.916778717538
 30
0.0
 10
6283.612442242938
 20
5256.991045432925
 30
0.0
 10
6283.614293487183
 20
5257.065621435473
 30
0.0
 10
6283.615085449809
 20
5257.097525062994
 30
0.0
  0
LINE
  5
113
330
1F
100
AcDbEntity
  8
0
  6
Continuous
 62
     7
370
    25
100
AcDbLine
 10
6283.6150854498
 20
5257.097525063
 30
0.0
 11
6283.6149476141
 21
5257.2075254349
 31
0.0
  0
CIRCLE
  5
114
330
1F
100
AcDbEntity
  8
0
  6
Continuous
 62
     7
370
    25
100
AcDbCircle
 10
6274.0187553361
 20
5213.3941166548
 30
0.0
 40
72.38561808316445
  0
SPLINE
  5
115
330
1F
100
AcDbEntity
  8
0
  6
Continuous
 62
     7
370
    25
100
AcDbSpline
210
0.0
220
0.0
230
1.0
 70
     8
 71
     3
 72
    10
 73
     6
 74
     0
 42
0.000000001
 43
0.00000001
 40
0.0
 40
0.0
 40
0.0
 40
0.0
 40
0.227043667358148
 40
0.5090026210676469
 40
1.0
 40
1.0
 40
1.0
 40
1.0
 10
6283.529509012395
 20
5257.334993693069
 30
0.0
 10
6283.470765235492
 20
5257.307128341214
 30
0.0
 10
6283.339069263686
 20
5257.244657816067
 30
0.0
 10
6283.053041543155
 20
5257.204917078682
 30
0.0
 10
6282.832928757349
 20
5257.214267039989
 30
0.0
 10
6282.69310869723
 20
5257.220206323103
 30
0.0
  0
SPLINE
  5
116
330
1F
100
AcDbEntity
  8
0
  6
Continuous
 62
     7
370
    25
100
AcDbSpline
210
0.0
220
0.0
230
1.0
 70
     8
 71
     3
 72
     9
 73
     5
 74
     0
 42
0.000000001
 43
0.00000001
 40
0.0
 40
0.0
 40
0.0
 40
0.0
 40
0.564131713780685
 40
0.9999999999999999
 40
0.9999999999999999
 40
0.9999999999999999
 40
0.9999999999999999
 10
6282.69310869723
 20
5257.220206323103
 30
0.0
 10
6282.65422079546
 20
5257.224623251926
 30
0.0
 10
6282.585286713543
 20
5257.232452857523
 30
0.0
 10
6282.517235536729
 20
5257.245901444613
 30
0.0
 10
6282.487574186915
 20
5257.251763257221
 30
0.0
  0
SPLINE
  5
117
330
1F
100
AcDbEntity
  8
0
  6
Continuous
 62
     7
370
    25
100
AcDbSpline
210
0.0
220
0.0
230
1.0
 70
     8
 71
     3
 72
     9
 73
     5
 74
     0
 42
0.000000001
 43
0.00000001
 40
0.0
 40
0.0
 40
0.0
 40
0.0
 40
0.5565094174008319
 40
1.0
 40
1.0
 40
1.0
 40
1.0
 10
6282.487574186915
 20
5257.251763257221
 30
0.0
 10
6282.476259952243
 20
5257.253740659812
 30
0.0
 10
6282.455929236682
 20
5257.257293883763
 30
0.0
 10
6282.436181008854
 20
5257.263271894279
 30
0.0
 10
6282.427422855789
 20
5257.265923085645
 30
0.0
  0
SPLINE
  5
118
330
1F
100
AcDbEntity
  8
0
  6
Continuous
 62
     7
370
    25
100
AcDbSpline
210
0.0
220
0.0
230
1.0
 70
     8
 71
     3
 72
     9
 73
     5
 74
     0
 42
0.000000001
 43
0.00000001
 40
0.0
 40
0.0
 40
0.0
 40
0.0
 40
0.5683195070549226
 40
1.0
 40
1.0
 40
1.0
 40
1.0
 10
6282.427422855789
 20
5257.265923085645
 30
0.0
 10
6282.405657479558
 20
5257.271164903865
 30
0.0
 10
6282.367359698185
 20
5257.28038826881
 30
0.0
 10
6282.329855401759
 20
5257.292422788229
 30
0.0
 10
6282.31366552859
 20
5257.297617855505
 30
0.0
  0
SPLINE
  5
119
330
1F
100
AcDbEntity
  8
0
  6
Continuous
 62
     7
370
    25
100
AcDbSpline
210
0.0
220
0.0
230
1.0
 70
     8
 71
     3
 72
     9
 73
     5
 74
     0
 42
0.000000001
 43
0.00000001
 40
0.0
 40
0.0
 40
0.0
 40
0.0
 40
0.5868205430698422
 40
0.9999999999999999
 40
0.9999999999999999
 40
0.9999999999999999
 40
0.9999999999999999
 10
6282.31366552859
 20
5257.297617855505
 30
0.0
 10
6282.31629384906
 20
5257.384609048803
 30
0.0
 10
6282.320772765996
 20
5257.532850609748
 30
0.0
 10
6282.352896126207
 20
5257.677483676813
 30
0.0
 10
6282.366168838734
 20
5257.737243088916
 30
0.0
  0
SPLINE
  5
11A
330
1F
100
AcDbEntity
  8
0
  6
Continuous
 62
     7
370
    25
100
AcDbSpline
210
0.0
220
0.0
230
1.0
 70
     8
 71
     3
 72
     9
 73
     5
 74
     0
 42
0.000000001
 43
0.00000001
 40
0.0
 40
0.0
 40
0.0
 40
0.0
 40
0.5521764845463024
 40
1.0
 40
1.0
 40
1.0
 40
1.0
 10
6282.366168838734
 20
5257.737243088916
 30
0.0
 10
6282.377509241338
 20
5257.734694501622
 30
0.0
 10
6282.398046882694
 20
5257.730078971324
 30
0.0
 10
6282.417860619717
 20
5257.7229879719
 30
0.0
 10
6282.426733677084
 20
5257.71981245561
 30
0.0
  0
SPLINE
  5
11B
330
1F
100
AcDbEntity
  8
0
  6
Continuous
 62
     7
370
    25
100
AcDbSpline
210
0.0
220
0.0
230
1.0
 70
     8
 71
     3
 72
     9
 73
     5
 74
     0
 42
0.000000001
 43
0.00000001
 40
0.0
 40
0.0
 40
0.0
 40
0.0
 40
0.5565743270214129
 40
1.0
 40
1.0
 40
1.0
 40
1.0
 10
6282.426733677084
 20
5257.71981245561
 30
0.0
 10
6282.437869256179
 20
5257.717077269508
 30
0.0
 10
6282.457876609295
 20
5257.712162946353
 30
0.0
 10
6282.477973521424
 20
5257.70762939336
 30
0.0
 10
6282.48688500821
 20
5257.705619099573
 30
0.0
  0
SPLINE
  5
11C
330
1F
100
AcDbEntity
  8
0
  6
Continuous
 62
     7
370
    25
100
AcDbSpline
210
0.0
220
0.0
230
1.0
 70
     8
 71
     3
 72
     9
 73
     5
 74
     0
 42
0.000000001
 43
0.00000001
 40
0.0
 40
0.0
 40
0.0
 40
0.0
 40
0.5500974326344924
 40
1.0
 40
1.0
 40
1.0
 40
1.0
 10
6282.48688500821
 20
5257.705619099573
 30
0.0
 10
6282.524329900391
 20
5257.698906782948
 30
0.0
 10
6282.592399463994
 20
5257.686704732498
 30
0.0
 10
6282.661430980079
 20
5257.682879724425
 30
0.0
 10
6282.692488436395
 20
5257.681158843473
 30
0.0
  0
SPLINE
  5
11D
330
1F
100
AcDbEntity
  8
0
  6
Continuous
 62
     7
370
    25
100
AcDbSpline
210
0.0
220
0.0
230
1.0
 70
     8
 71
     3
 72
    10
 73
     6
 74
     0
 42
0.000000001
 43
0.00000001
 40
0.0
 40
0.0
 40
0.0
 40
0.0
 40
0.6435211322187534
 40
0.8491515197316332
 40
1.0
 40
1.0
 40
1.0
 40
1.0
 10
6282.692488436395
 20
5257.681158843473
 30
0.0
 10
6282.858490010791
 20
5257.680373856511
 30
0.0
 10
6283.077535636675
 20
5257.67933803525
 30
0.0
 10
6283.332739162683
 20
5257.72825984199
 30
0.0
 10
6283.415760734644
 20
5257.768124593159
 30
0.0
 10
6283.450892348582
 20
5257.784993859962
 30
0.0
  0
SPLINE
  5
11E
330
1F
100
AcDbEntity
  8
0
  6
Continuous
 62
     7
370
    25
100
AcDbSpline
210
0.0
220
0.0
230
1.0
 70
     8
 71
     3
 72
     9
 73
     5
 74
     0
 42
0.000000001
 43
0.00000001
 40
0.0
 40
0.0
 40
0.0
 40
0.0
 40
0.6231036917020297
 40
1.0
 40
1.0
 40
1.0
 40
1.0
 10
6283.450892348582
 20
5257.784993859962
 30
0.0
 10
6283.476095216639
 20
5257.692924220009
 30
0.0
 10
6283.516542526441
 20
5257.545164479247
 30
0.0
 10
6283.525959710492
 20
5257.392523510634
 30
0.0
 10
6283.529509012395
 20
5257.334993693069
 30
0.0
  0
SPLINE
  5
11F
330
1F
100
AcDbEntity
  8
0
  6
Continuous
 62
     7
370
    25
100
AcDbSpline
210
0.0
220
0.0
230
1.0
 70
     8
 71
     3
 72
     9
 73
     5
 74
     0
 42
0.000000001
 43
0.00000001
 40
0.0
 40
0.0
 40
0.0
 40
0.0
 40
0.5710595021945986
 40
1.0
 40
1.0
 40
1.0
 40
1.0
 10
6282.422049124533
 20
5260.736682924465
 30
0.0
 10
6282.433795977978
 20
5260.7471978133
 30
0.0
 10
6282.454366257257
 20
5260.765610761156
 30
0.0
 10
6282.473893393842
 20
5260.785123708268
 30
0.0
 10
6282.48226937353
 20
5260.793493601516
 30
0.0
  0
SPLINE
  5
120
330
1F
100
AcDbEntity
  8
0
  6
Continuous
 62
     7
370
    25
100
AcDbSpline
210
0.0
220
0.0
230
1.0
 70
     8
 71
     3
 72
     9
 73
     5
 74
     0
 42
0.000000001
 43
0.00000001
 40
0.0
 40
0.0
 40
0.0
 40
0.0
 40
0.5593578839999975
 40
1.0
 40
1.0
 40
1.0
 40
1.0
 10
6282.48226937353
 20
5260.793493601516
 30
0.0
 10
6282.519827140974
 20
5260.825444614154
 30
0.0
 10
6282.586971573041
 20
5260.882565490701
 30
0.0
 10
6282.656675771235
 20
5260.936526956173
 30
0.0
 10
6282.687390376622
 20
5260.960304650501
 30
0.0
  0
SPLINE
  5
121
330
1F
100
AcDbEntity
  8
0
  6
Continuous
 62
     7
370
    25
100
AcDbSpline
210
0.0
220
0.0
230
1.0
 70
     8
 71
     3
 72
     9
 73
     5
 74
     0
 42
0.000000001
 43
0.00000001
 40
0.0
 40
0.0
 40
0.0
 40
0.0
 40
0.5259534577454797
 40
1.0
 40
1.0
 40
1.0
 40
1.0
 10
6283.541291174287
 20
5261.330203625396
 30
0.0
 10
6283.515364007094
 20
5261.106665889615
 30
0.0
 10
6283.466068452877
 20
5260.681651598921
 30
0.0
 10
6283.253794758676
 20
5260.310846189772
 30
0.0
 10
6283.153167147929
 20
5260.135067167715
 30
0.0
  0
SPLINE
  5
122
330
1F
100
AcDbEntity
  8
0
  6
Continuous
 62
     7
370
    25
100
AcDbSpline
210
0.0
220
0.0
230
1.0
 70
     8
 71
     3
 72
     9
 73
     5
 74
     0
 42
0.000000001
 43
0.00000001
 40
0.0
 40
0.0
 40
0.0
 40
0.0
 40
0.5400626911750583
 40
1.0
 40
1.0
 40
1.0
 40
1.0
 10
6283.153167147929
 20
5260.135067167715
 30
0.0
 10
6283.14183414224
 20
5260.155182900073
 30
0.0
 10
6283.120849530873
 20
5260.192429932105
 30
0.0
 10
6283.094232832694
 20
5260.225866614216
 30
0.0
 10
6283.081990820164
 20
5260.241245391801
 30
0.0
  0
SPLINE
  5
123
330
1F
100
AcDbEntity
  8
0
  6
Continuous
 62
     7
370
    25
100
AcDbSpline
210
0.0
220
0.0
230
1.0
 70
     8
 71
     3
 72
     9
 73
     5
 74
     0
 42
0.000000001
 43
0.00000001
 40
0.0
 40
0.0
 40
0.0
 40
0.0
 40
0.5723235389945837
 40
1.0
 40
1.0
 40
1.0
 40
1.0
 10
6283.081990820164
 20
5260.241245391801
 30
0.0
 10
6283.18091546553
 20
5260.41249140632
 30
0.0
 10
6283.353762882463
 20
5260.711703308072
 30
0.0
 10
6283.398533882653
 20
5261.053057974271
 30
0.0
 10
6283.417681385571
 20
5261.199047329858
 30
0.0
  0
SPLINE
  5
124
330
1F
100
AcDbEntity
  8
0
  6
Continuous
 62
     7
370
    25
100
AcDbSpline
210
0.0
220
0.0
230
1.0
 70
     8
 71
     3
 72
     9
 73
     5
 74
     0
 42
0.000000001
 43
0.00000001
 40
0.0
 40
0.0
 40
0.0
 40
0.0
 40
0.5545247124203985
 40
0.9999999999999999
 40
0.9999999999999999
 40
0.9999999999999999
 40
0.9999999999999999
 10
6283.417681385571
 20
5261.199047329858
 30
0.0
 10
6283.27066146393
 20
5261.152884936583
 30
0.0
 10
6283.005533655649
 20
5261.069638162829
 30
0.0
 10
6282.785580080883
 20
5260.900810451745
 30
0.0
 10
6282.687596198911
 20
5260.825601878599
 30
0.0
  0
SPLINE
  5
125
330
1F
100
AcDbEntity
  8
0
  6
Continuous
 62
     7
370
    25
100
AcDbSpline
210
0.0
220
0.0
230
1.0
 70
     8
 71
     3
 72
     9
 73
     5
 74
     0
 42
0.000000001
 43
0.00000001
 40
0.0
 40
0.0
 40
0.0
 40
0.0
 40
0.5489853095562829
 40
1.0
 40
1.0
 40
1.0
 40
1.0
 10
6282.687596198911
 20
5260.825601878599
 30
0.0
 10
6282.652248542148
 20
5260.796225664653
 30
0.0
 10
6282.587861287796
 20
5260.742715646381
 30
0.0
 10
6282.527388542075
 20
5260.684828157139
 30
0.0
 10
6282.500114445383
 20
5260.658720049099
 30
0.0
  0
LINE
  5
126
330
1F
100
AcDbEntity
  8
0
  6
Continuous
 62
     7
370
    25
100
AcDbLine
 10
6282.5001144454
 20
5260.6587200491
 30
0.0
 11
6282.4824751958
 21
5260.6694675116
 31
0.0
  0
SPLINE
  5
127
330
1F
100
AcDbEntity
  8
0
  6
Continuous
 62
     7
370
    25
100
AcDbSpline
210
0.0
220
0.0
230
1.0
 70
     8
 71
     3
 72
     9
 73
     5
 74
     0
 42
0.000000001
 43
0.00000001
 40
0.0
 40
0.0
 40
0.0
 40
0.0
 40
0.5805274574274019
 40
1.0
 40
1.0
 40
1.0
 40
1.0
 10
6282.482475195819
 20
5260.66946751161
 30
0.0
 10
6282.470633786857
 20
5260.674571018115
 30
0.0
 10
6282.450236114341
 20
5260.683362172505
 30
0.0
 10
6282.430426641163
 20
5260.693403671845
 30
0.0
 10
6282.422117111081
 20
5260.697615805105
 30
0.0
  0
LINE
  5
128
330
1F
100
AcDbEntity
  8
0
  6
Continuous
 62
     7
370
    25
100
AcDbLine
 10
6282.4221171111
 20
5260.6976158051
 30
0.0
 11
6282.3901466697
 21
5260.7081919043
 31
0.0
  0
LINE
  5
129
330
1F
100
AcDbEntity
  8
0
  6
Continuous
 62
     7
370
    25
100
AcDbLine
 10
6282.3901466697
 20
5260.7081919043
 30
0.0
 11
6282.4220491245
 21
5260.7366829245
 31
0.0
  0
SPLINE
  5
12A
330
1F
100
AcDbEntity
  8
0
  6
Continuous
 62
     7
370
    25
100
AcDbSpline
210
0.0
220
0.0
230
1.0
 70
     8
 71
     3
 72
     9
 73
     5
 74
     0
 42
0.000000001
 43
0.00000001
 40
0.0
 40
0.0
 40
0.0
 40
0.0
 40
0.550417041542631
 40
1.0
 40
1.0
 40
1.0
 40
1.0
 10
6282.687390376622
 20
5260.960304650501
 30
0.0
 10
6282.830664195841
 20
5261.060333169049
 30
0.0
 10
6283.090964674214
 20
5261.242065402973
 30
0.0
 10
6283.401624024509
 20
5261.302867871648
 30
0.0
 10
6283.541291174287
 20
5261.330203625396
 30
0.0
  0
SPLINE
  5
12B
330
1F
100
AcDbEntity
  8
0
  6
Continuous
 62
     7
370
    25
100
AcDbSpline
210
0.0
220
0.0
230
1.0
 70
     8
 71
     3
 72
     9
 73
     5
 74
     0
 42
0.000000001
 43
0.00000001
 40
0.0
 40
0.0
 40
0.0
 40
0.0
 40
0.5193407790497648
 40
1.0
 40
1.0
 40
1.0
 40
1.0
 10
6280.783147704596
 20
5261.170180055336
 30
0.0
 10
6280.909124473462
 20
5261.112119175067
 30
0.0
 10
6281.151695005082
 20
5261.000321907049
 30
0.0
 10
6281.372414753007
 20
5260.850000277011
 30
0.0
 10
6281.478505735094
 20
5260.777746799425
 30
0.0
  0
SPLINE
  5
12C
330
1F
100
AcDbEntity
  8
0
  6
Continuous
 62
     7
370
    25
100
AcDbSpline
210
0.0
220
0.0
230
1.0
 70
     8
 71
     3
 72
     9
 73
     5
 74
     0
 42
0.000000001
 43
0.00000001
 40
0.0
 40
0.0
 40
0.0
 40
0.0
 40
0.5791978547510956
 40
1.0
 40
1.0
 40
1.0
 40
1.0
 10
6281.478505735094
 20
5260.777746799425
 30
0.0
 10
6281.433067925399
 20
5260.768995588978
 30
0.0
 10
6281.354618377767
 20
5260.753886398959
 30
0.0
 10
6281.279985871116
 20
5260.725556032408
 30
0.0
 10
6281.248580352211
 20
5260.713634553388
 30
0.0
  0
SPLINE
  5
12D
330
1F
100
AcDbEntity
  8
0
  6
Continuous
 62
     7
370
    25
100
AcDbSpline
210
0.0
220
0.0
230
1.0
 70
     8
 71
     3
 72
     9
 73
     5
 74
     0
 42
0.000000001
 43
0.00000001
 40
0.0
 40
0.0
 40
0.0
 40
0.0
 40
0.548425862112666
 40
1.0
 40
1.0
 40
1.0
 40
1.0
 10
6281.248580352211
 20
5260.713634553388
 30
0.0
 10
6281.173151040109
 20
5260.799783030465
 30
0.0
 10
6281.035613193492
 20
5260.956866208024
 30
0.0
 10
6280.861782834733
 20
5261.072086387556
 30
0.0
 10
6280.783285540337
 20
5261.124116840795
 30
0.0
  0
SPLINE
  5
12E
330
1F
100
AcDbEntity
  8
0
  6
Continuous
 62
     7
370
    25
100
AcDbSpline
210
0.0
220
0.0
230
1.0
 70
     8
 71
     3
 72
     9
 73
     5
 74
     0
 42
0.000000001
 43
0.00000001
 40
0.0
 40
0.0
 40
0.0
 40
0.0
 40
0.5578339668750358
 40
1.0
 40
1.0
 40
1.0
 40
1.0
 10
6280.783285540337
 20
5261.124116840795
 30
0.0
 10
6280.734305615951
 20
5261.152178975216
 30
0.0
 10
6280.646501847637
 20
5261.202484507124
 30
0.0
 10
6280.552152277958
 20
5261.238943563671
 30
0.0
 10
6280.510434103006
 20
5261.255064520076
 30
0.0
  0
SPLINE
  5
12F
330
1F
100
AcDbEntity
  8
0
  6
Continuous
 62
     7
370
    25
100
AcDbSpline
210
0.0
220
0.0
230
1.0
 70
     8
 71
     3
 72
     9
 73
     5
 74
     0
 42
0.000000001
 43
0.00000001
 40
0.0
 40
0.0
 40
0.0
 40
0.0
 40
0.5031985637024012
 40
1.0
 40
1.0
 40
1.0
 40
1.0
 10
6280.510434103006
 20
5261.255064520076
 30
0.0
 10
6280.557462676879
 20
5261.244951147873
 30
0.0
 10
6280.650921953722
 20
5261.224852974043
 30
0.0
 10
6280.739260825978
 20
5261.188326473345
 30
0.0
 10
6280.783147704596
 20
5261.170180055336
 30
0.0
  0
SPLINE
  5
130
330
1F
100
AcDbEntity
  8
0
  6
Continuous
 62
     7
370
    25
100
AcDbSpline
210
0.0
220
0.0
230
1.0
 70
     8
 71
     3
 72
     9
 73
     5
 74
     0
 42
0.000000001
 43
0.00000001
 40
0.0
 40
0.0
 40
0.0
 40
0.0
 40
0.5913557041462674
 40
1.0
 40
1.0
 40
1.0
 40
1.0
 10
6280.353062008316
 20
5259.666429373458
 30
0.0
 10
6280.412362225992
 20
5259.82346568205
 30
0.0
 10
6280.512640649386
 20
5260.089018728195
 30
0.0
 10
6280.705603837857
 20
5260.295423981964
 30
0.0
 10
6280.784457144136
 20
5260.37977031155
 30
0.0
  0
SPLINE
  5
131
330
1F
100
AcDbEntity
  8
0
  6
Continuous
 62
     7
370
    25
100
AcDbSpline
210
0.0
220
0.0
230
1.0
 70
     8
 71
     3
 72
     9
 73
     5
 74
     0
 42
0.000000001
 43
0.00000001
 40
0.0
 40
0.0
 40
0.0
 40
0.0
 40
0.5566489730816211
 40
1.0
 40
1.0
 40
1.0
 40
1.0
 10
6280.784457144136
 20
5260.37977031155
 30
0.0
 10
6280.903083401666
 20
5260.471266750443
 30
0.0
 10
6281.116191236703
 20
5260.635636835213
 30
0.0
 10
6281.377239300927
 20
5260.697290114905
 30
0.0
 10
6281.492975228274
 20
5260.724624159769
 30
0.0
  0
SPLINE
  5
132
330
1F
100
AcDbEntity
  8
0
  6
Continuous
 62
     7
370
    25
100
AcDbSpline
210
0.0
220
0.0
230
1.0
 70
     8
 71
     3
 72
     9
 73
     5
 74
     0
 42
0.000000001
 43
0.00000001
 40
0.0
 40
0.0
 40
0.0
 40
0.0
 40
0.5544299069589644
 40
1.0
 40
1.0
 40
1.0
 40
1.0
 10
6281.492975228274
 20
5260.724624159769
 30
0.0
 10
6281.553539731838
 20
5260.734907273094
 30
0.0
 10
6281.662777171602
 20
5260.753454456781
 30
0.0
 10
6281.773434286956
 20
5260.758464029808
 30
0.0
 10
6281.822739788139
 20
5260.760696145729
 30
0.0
  0
LINE
  5
133
330
1F
100
AcDbEntity
  8
0
  6
Continuous
 62
     7
370
    25
100
AcDbLine
 10
6281.8227397881
 20
5260.7606961457
 30
0.0
 11
6281.8297680139
 21
5260.7606961457
 31
0.0
  0
SPLINE
  5
134
330
1F
100
AcDbEntity
  8
0
  6
Continuous
 62
     7
370
    25
100
AcDbSpline
210
0.0
220
0.0
230
1.0
 70
     8
 71
     3
 72
     9
 73
     5
 74
     0
 42
0.000000001
 43
0.00000001
 40
0.0
 40
0.0
 40
0.0
 40
0.0
 40
0.5617546344733272
 40
1.0
 40
1.0
 40
1.0
 40
1.0
 10
6281.829768013949
 20
5260.760696145729
 30
0.0
 10
6281.919232557721
 20
5260.759627109538
 30
0.0
 10
6282.078491668873
 20
5260.757724079061
 30
0.0
 10
6282.231227126539
 20
5260.713416249282
 30
0.0
 10
6282.298162733013
 20
5260.693998548225
 30
0.0
  0
SPLINE
  5
135
330
1F
100
AcDbEntity
  8
0
  6
Continuous
 62
     7
370
    25
100
AcDbSpline
210
0.0
220
0.0
230
1.0
 70
     8
 71
     3
 72
     9
 73
     5
 74
     0
 42
0.000000001
 43
0.00000001
 40
0.0
 40
0.0
 40
0.0
 40
0.0
 40
0.5656741401524591
 40
1.0
 40
1.0
 40
1.0
 40
1.0
 10
6282.298162733013
 20
5260.693998548225
 30
0.0
 10
6282.321898810738
 20
5260.686260908746
 30
0.0
 10
6282.363859501605
 20
5260.672582292508
 30
0.0
 10
6282.404524268922
 20
5260.655447986423
 30
0.0
 10
6282.422186028952
 20
5260.6480061142
 30
0.0
  0
SPLINE
  5
136
330
1F
100
AcDbEntity
  8
0
  6
Continuous
 62
     7
370
    25
100
AcDbSpline
210
0.0
220
0.0
230
1.0
 70
     8
 71
     3
 72
     9
 73
     5
 74
     0
 42
0.000000001
 43
0.00000001
 40
0.0
 40
0.0
 40
0.0
 40
0.0
 40
0.5677897239027698
 40
1.0
 40
1.0
 40
1.0
 40
1.0
 10
6282.422186028952
 20
5260.6480061142
 30
0.0
 10
6282.43400262032
 20
5260.64349191069
 30
0.0
 10
6282.454814182894
 20
5260.635541425993
 30
0.0
 10
6282.474175816628
 20
5260.624543976264
 30
0.0
 10
6282.48254411369
 20
5260.61979076548
 30
0.0
  0
SPLINE
  5
137
330
1F
100
AcDbEntity
  8
0
  6
Continuous
 62
     7
370
    25
100
AcDbSpline
210
0.0
220
0.0
230
1.0
 70
     8
 71
     3
 72
     9
 73
     5
 74
     0
 42
0.000000001
 43
0.00000001
 40
0.0
 40
0.0
 40
0.0
 40
0.0
 40
0.5618286958142611
 40
1.0
 40
1.0
 40
1.0
 40
1.0
 10
6282.48254411369
 20
5260.61979076548
 30
0.0
 10
6282.522311149714
 20
5260.600876655428
 30
0.0
 10
6282.593092575298
 20
5260.567211393768
 30
0.0
 10
6282.659186903769
 20
5260.525127278431
 30
0.0
 10
6282.688147541875
 20
5260.506687226728
 30
0.0
  0
SPLINE
  5
138
330
1F
100
AcDbEntity
  8
0
  6
Continuous
 62
     7
370
    25
100
AcDbSpline
210
0.0
220
0.0
230
1.0
 70
     8
 71
     3
 72
     9
 73
     5
 74
     0
 42
0.000000001
 43
0.00000001
 40
0.0
 40
0.0
 40
0.0
 40
0.0
 40
0.579225100304433
 40
1.0
 40
1.0
 40
1.0
 40
1.0
 10
6282.688147541875
 20
5260.506687226728
 30
0.0
 10
6282.838193215194
 20
5260.390535984056
 30
0.0
 10
6283.097238745575
 20
5260.190007307707
 30
0.0
 10
6283.221811020339
 20
5259.889482972986
 30
0.0
 10
6283.274227906758
 20
5259.763029876188
 30
0.0
  0
SPLINE
  5
139
330
1F
100
AcDbEntity
  8
0
  6
Continuous
 62
     7
370
    25
100
AcDbSpline
210
0.0
220
0.0
230
1.0
 70
     8
 71
     3
 72
     9
 73
     5
 74
     0
 42
0.000000001
 43
0.00000001
 40
0.0
 40
0.0
 40
0.0
 40
0.0
 40
0.499398007886919
 40
0.9999999999999999
 40
0.9999999999999999
 40
0.9999999999999999
 40
0.9999999999999999
 10
6283.274227906758
 20
5259.763029876188
 30
0.0
 10
6283.186060348597
 20
5259.84463742091
 30
0.0
 10
6283.009512671657
 20
5260.008049255626
 30
0.0
 10
6282.795676686916
 20
5260.118268923207
 30
0.0
 10
6282.688629966969
 20
5260.173445108369
 30
0.0
  0
SPLINE
  5
13A
330
1F
100
AcDbEntity
  8
0
  6
Continuous
 62
     7
370
    25
100
AcDbSpline
210
0.0
220
0.0
230
1.0
 70
     8
 71
     3
 72
     9
 73
     5
 74
     0
 42
0.000000001
 43
0.00000001
 40
0.0
 40
0.0
 40
0.0
 40
0.0
 40
0.5568699560324939
 40
1.0
 40
1.0
 40
1.0
 40
1.0
 10
6282.688629966969
 20
5260.173445108369
 30
0.0
 10
6282.650847030648
 20
5260.191346376796
 30
0.0
 10
6282.582998270068
 20
5260.223492604535
 30
0.0
 10
6282.513724034041
 20
5260.252431287791
 30
0.0
 10
6282.483026538784
 20
5260.265254887775
 30
0.0
  0
SPLINE
  5
13B
330
1F
100
AcDbEntity
  8
0
  6
Continuous
 62
     7
370
    25
100
AcDbSpline
210
0.0
220
0.0
230
1.0
 70
     8
 71
     3
 72
     9
 73
     5
 74
     0
 42
0.000000001
 43
0.00000001
 40
0.0
 40
0.0
 40
0.0
 40
0.0
 40
0.5413605496092875
 40
1.0
 40
1.0
 40
1.0
 40
1.0
 10
6282.483026538784
 20
5260.265254887775
 30
0.0
 10
6282.474162097952
 20
5260.269296532555
 30
0.0
 10
6282.457787722617
 20
5260.276762249779
 30
0.0
 10
6282.441033163237
 20
5260.283328492783
 30
0.0
 10
6282.433348861331
 20
5260.286340030864
 30
0.0
  0
LINE
  5
13C
330
1F
100
AcDbEntity
  8
0
  6
Continuous
 62
     7
370
    25
100
AcDbLine
 10
6282.4333488613
 20
5260.2863400309
 30
0.0
 11
6282.4227373719
 21
5260.2758309869
 31
0.0
  0
SPLINE
  5
13D
330
1F
100
AcDbEntity
  8
0
  6
Continuous
 62
     7
370
    25
100
AcDbSpline
210
0.0
220
0.0
230
1.0
 70
     8
 71
     3
 72
     9
 73
     5
 74
     0
 42
0.000000001
 43
0.00000001
 40
0.0
 40
0.0
 40
0.0
 40
0.0
 40
0.5700356763470984
 40
1.0
 40
1.0
 40
1.0
 40
1.0
 10
6282.422737371916
 20
5260.275830986932
 30
0.0
 10
6282.400589265477
 20
5260.254572733994
 30
0.0
 10
6282.361735370258
 20
5260.217279887563
 30
0.0
 10
6282.317759826603
 20
5260.186239866897
 30
0.0
 10
6282.298851911718
 20
5260.172893765405
 30
0.0
  0
SPLINE
  5
13E
330
1F
100
AcDbEntity
  8
0
  6
Continuous
 62
     7
370
    25
100
AcDbSpline
210
0.0
220
0.0
230
1.0
 70
     8
 71
     3
 72
     9
 73
     5
 74
     0
 42
0.000000001
 43
0.00000001
 40
0.0
 40
0.0
 40
0.0
 40
0.0
 40
0.5272059422797778
 40
1.0
 40
1.0
 40
1.0
 40
1.0
 10
6282.298851911718
 20
5260.172893765405
 30
0.0
 10
6282.228630917893
 20
5260.135264454355
 30
0.0
 10
6282.095436300396
 20
5260.063889479165
 30
0.0
 10
6281.944712850691
 20
5260.058043054801
 30
0.0
 10
6281.873451699311
 20
5260.055278900102
 30
0.0
  0
LINE
  5
13F
330
1F
100
AcDbEntity
  8
0
  6
Continuous
 62
     7
370
    25
100
AcDbLine
 10
6281.8734516993
 20
5260.0552789001
 30
0.0
 11
6281.8308013163
 21
5260.0587210683
 31
0.0
  0
SPLINE
  5
140
330
1F
100
AcDbEntity
  8
0
  6
Continuous
 62
     7
370
    25
100
AcDbSpline
210
0.0
220
0.0
230
1.0
 70
     8
 71
     3
 72
     9
 73
     5
 74
     0
 42
0.000000001
 43
0.00000001
 40
0.0
 40
0.0
 40
0.0
 40
0.0
 40
0.5698588033350339
 40
1.0
 40
1.0
 40
1.0
 40
1.0
 10
6281.830801316345
 20
5260.058721068338
 30
0.0
 10
6281.76276369071
 20
5260.068816582653
 30
0.0
 10
6281.643369859752
 20
5260.086532399724
 30
0.0
 10
6281.538787446925
 20
5260.146028145037
 30
0.0
 10
6281.49380224272
 20
5260.171619716123
 30
0.0
  0
SPLINE
  5
141
330
1F
100
AcDbEntity
  8
0
  6
Continuous
 62
     7
370
    25
100
AcDbSpline
210
0.0
220
0.0
230
1.0
 70
     8
 71
     3
 72
     9
 73
     5
 74
     0
 42
0.000000001
 43
0.00000001
 40
0.0
 40
0.0
 40
0.0
 40
0.0
 40
0.5910879212792873
 40
1.0
 40
1.0
 40
1.0
 40
1.0
 10
6281.49380224272
 20
5260.171619716123
 30
0.0
 10
6281.455342109344
 20
5260.197556407574
 30
0.0
 10
6281.390275421305
 20
5260.241435990486
 30
0.0
 10
6281.335234774006
 20
5260.297247009448
 30
0.0
 10
6281.312727988506
 20
5260.320068809227
 30
0.0
  0
SPLINE
  5
142
330
1F
100
AcDbEntity
  8
0
  6
Continuous
 62
     7
370
    25
100
AcDbSpline
210
0.0
220
0.0
230
1.0
 70
     8
 71
     3
 72
     9
 73
     5
 74
     0
 42
0.000000001
 43
0.00000001
 40
0.0
 40
0.0
 40
0.0
 40
0.0
 40
0.511570270508625
 40
1.0
 40
1.0
 40
1.0
 40
1.0
 10
6281.312727988506
 20
5260.320068809227
 30
0.0
 10
6281.218281976162
 20
5260.276350037664
 30
0.0
 10
6281.033662154042
 20
5260.1908900841
 30
0.0
 10
6280.866557825537
 20
5260.074896687352
 30
0.0
 10
6280.784939103568
 20
5260.018242063955
 30
0.0
  0
SPLINE
  5
143
330
1F
100
AcDbEntity
  8
0
  6
Continuous
 62
     7
370
    25
100
AcDbSpline
210
0.0
220
0.0
230
1.0
 70
     8
 71
     3
 72
     9
 73
     5
 74
     0
 42
0.000000001
 43
0.00000001
 40
0.0
 40
0.0
 40
0.0
 40
0.0
 40
0.5463599307650375
 40
1.0
 40
1.0
 40
1.0
 40
1.0
 10
6280.784939103568
 20
5260.018242063955
 30
0.0
 10
6280.703828309781
 20
5259.9571715466
 30
0.0
 10
6280.555371607119
 20
5259.845394467214
 30
0.0
 10
6280.416197128453
 20
5259.722279331945
 30
0.0
 10
6280.353062008316
 20
5259.666429373458
 30
0.0
  0
SPLINE
  5
144
330
1F
100
AcDbEntity
  8
0
  6
Continuous
 62
     7
370
    25
100
AcDbSpline
210
0.0
220
0.0
230
1.0
 70
     8
 71
     3
 72
    17
 73
    13
 74
     0
 42
0.000000001
 43
0.00000001
 40
0.0
 40
0.0
 40
0.0
 40
0.0
 40
0.0952268165204692
 40
0.1793255652258264
 40
0.2589979634408583
 40
0.3781669315784979
 40
0.5001902287718399
 40
0.6221694378654137
 40
0.7411802146666894
 40
0.8207439671969183
 40
0.9047916126148133
 40
1.0
 40
1.0
 40
1.0
 40
1.0
 10
6282.246348601574
 20
5259.683412971929
 30
0.0
 10
6282.246419119698
 20
5259.678757413252
 30
0.0
 10
6282.246551915299
 20
5259.669990337739
 30
0.0
 10
6282.251594082106
 20
5259.658151471322
 30
0.0
 10
6282.260697381077
 20
5259.647644125854
 30
0.0
 10
6282.274780008774
 20
5259.640067965518
 30
0.0
 10
6282.292468781822
 20
5259.637380826207
 30
0.0
 10
6282.310141693623
 20
5259.640118734536
 30
0.0
 10
6282.324188189588
 20
5259.647733416226
 30
0.0
 10
6282.333234202152
 20
5259.658271910937
 30
0.0
 10
6282.338206536942
 20
5259.670131569173
 30
0.0
 10
6282.338288829954
 20
5259.678895836158
 30
0.0
 10
6282.338332538301
 20
5259.68355080767
 30
0.0
  0
SPLINE
  5
145
330
1F
100
AcDbEntity
  8
0
  6
Continuous
 62
     7
370
    25
100
AcDbSpline
210
0.0
220
0.0
230
1.0
 70
     8
 71
     3
 72
    17
 73
    13
 74
     0
 42
0.000000001
 43
0.00000001
 40
0.0
 40
0.0
 40
0.0
 40
0.0
 40
0.0953306005763614
 40
0.1794306274351576
 40
0.2590222443340063
 40
0.378001664138405
 40
0.4998508189674788
 40
0.6217340354769917
 40
0.7408080795652522
 40
0.8204662965534015
 40
0.9046526653496288
 40
1.0
 40
1.0
 40
1.0
 40
1.0
 10
6282.338332538301
 20
5259.68355080767
 30
0.0
 10
6282.338273042258
 20
5259.688216694667
 30
0.0
 10
6282.338161059198
 20
5259.696998796389
 30
0.0
 10
6282.333149130708
 20
5259.708867363281
 30
0.0
 10
6282.324068476642
 20
5259.719399137755
 30
0.0
 10
6282.309998922417
 20
5259.726995942238
 30
0.0
 10
6282.292312037343
 20
5259.729688856904
 30
0.0
 10
6282.27462804412
 20
5259.726946148035
 30
0.0
 10
6282.260570723412
 20
5259.719308199425
 30
0.0
 10
6282.251503818958
 20
5259.708749698496
 30
0.0
 10
6282.246505800894
 20
5259.696866759126
 30
0.0
 10
6282.24640312893
 20
5259.68807965523
 30
0.0
 10
6282.246348601574
 20
5259.683412971929
 30
0.0
  0
SPLINE
  5
146
330
1F
100
AcDbEntity
  8
0
  6
Continuous
 62
     7
370
    25
100
AcDbSpline
210
0.0
220
0.0
230
1.0
 70
     8
 71
     3
 72
    11
 73
     7
 74
     0
 42
0.000000001
 43
0.00000001
 40
0.0
 40
0.0
 40
0.0
 40
0.0
 40
0.2845111717508362
 40
0.5545836773781323
 40
0.771020809266273
 40
1.0
 40
1.0
 40
1.0
 40
1.0
 10
6282.299403254682
 20
5259.811227682069
 30
0.0
 10
6282.317260001189
 20
5259.809032896972
 30
0.0
 10
6282.352067281629
 20
5259.804754709994
 30
0.0
 10
6282.390400024433
 20
5259.772446860894
 30
0.0
 10
6282.412601350915
 20
5259.732891321308
 30
0.0
 10
6282.415154954362
 20
5259.70508167659
 30
0.0
 10
6282.416467708344
 20
5259.69078532143
 30
0.0
  0
SPLINE
  5
147
330
1F
100
AcDbEntity
  8
0
  6
Continuous
 62
     7
370
    25
100
AcDbSpline
210
0.0
220
0.0
230
1.0
 70
     8
 71
     3
 72
    11
 73
     7
 74
     0
 42
0.000000001
 43
0.00000001
 40
0.0
 40
0.0
 40
0.0
 40
0.0
 40
0.2787789730893365
 40
0.5508075435538689
 40
0.7693716838170045
 40
1.0
 40
1.0
 40
1.0
 40
1.0
 10
6282.416467708344
 20
5259.69078532143
 30
0.0
 10
6282.414351343331
 20
5259.673508155171
 30
0.0
 10
6282.410169859335
 20
5259.639372174967
 30
0.0
 10
6282.37969589138
 20
5259.600677566737
 30
0.0
 10
6282.341556178618
 20
5259.576373090554
 30
0.0
 10
6282.313976804938
 20
5259.572300060845
 30
0.0
 10
6282.299816761905
 20
5259.570208850339
 30
0.0
  0
LINE
  5
148
330
1F
100
AcDbEntity
  8
0
  6
Continuous
 62
     7
370
    25
100
AcDbLine
 10
6282.2998167619
 20
5259.5702088503
 30
0.0
 11
6282.2960272103
 21
5259.5701380698
 31
0.0
  0
SPLINE
  5
149
330
1F
100
AcDbEntity
  8
0
  6
Continuous
 62
     7
370
    25
100
AcDbSpline
210
0.0
220
0.0
230
1.0
 70
     8
 71
     3
 72
    11
 73
     7
 74
     0
 42
0.000000001
 43
0.00000001
 40
0.0
 40
0.0
 40
0.0
 40
0.0
 40
0.2778915994324632
 40
0.551202527627723
 40
0.7704906637568314
 40
0.9999999999999999
 40
0.9999999999999999
 40
0.9999999999999999
 40
0.9999999999999999
 10
6282.296027210349
 20
5259.570138069824
 30
0.0
 10
6282.278697570063
 20
5259.572457767035
 30
0.0
 10
6282.244323945425
 20
5259.577058924352
 30
0.0
 10
6282.206240757876
 20
5259.609057550925
 30
0.0
 10
6282.182951424559
 20
5259.64826033389
 30
0.0
 10
6282.180129951003
 20
5259.676169963868
 30
0.0
 10
6282.178687085206
 20
5259.690442594722
 30
0.0
  0
SPLINE
  5
14A
330
1F
100
AcDbEntity
  8
0
  6
Continuous
 62
     7
370
    25
100
AcDbSpline
210
0.0
220
0.0
230
1.0
 70
     8
 71
     3
 72
    11
 73
     7
 74
     0
 42
0.000000001
 43
0.00000001
 40
0.0
 40
0.0
 40
0.0
 40
0.0
 40
0.2897918329650985
 40
0.5653094969786767
 40
0.7802244868501763
 40
1.0
 40
1.0
 40
1.0
 40
1.0
 10
6282.178687085206
 20
5259.690442594722
 30
0.0
 10
6282.180926133446
 20
5259.708533878063
 30
0.0
 10
6282.185293941956
 20
5259.743825329103
 30
0.0
 10
6282.216676974275
 20
5259.783122043486
 30
0.0
 10
6282.254894132258
 20
5259.806827896257
 30
0.0
 10
6282.281939708813
 20
5259.809703183046
 30
0.0
 10
6282.295613703126
 20
5259.811156901554
 30
0.0
  0
LINE
  5
14B
330
1F
100
AcDbEntity
  8
0
  6
Continuous
 62
     7
370
    25
100
AcDbLine
 10
6282.2956137031
 20
5259.8111569016
 30
0.0
 11
6282.2994032547
 21
5259.8112276821
 31
0.0
  0
SPLINE
  5
14C
330
1F
100
AcDbEntity
  8
0
  6
Continuous
 62
     7
370
    25
100
AcDbSpline
210
0.0
220
0.0
230
1.0
 70
     8
 71
     3
 72
     9
 73
     5
 74
     0
 42
0.000000001
 43
0.00000001
 40
0.0
 40
0.0
 40
0.0
 40
0.0
 40
0.5678863285356237
 40
1.0
 40
1.0
 40
1.0
 40
1.0
 10
6281.069711004192
 20
5259.241992148593
 30
0.0
 10
6281.017358906544
 20
5259.269794526841
 30
0.0
 10
6280.925171271421
 20
5259.318752173557
 30
0.0
 10
6280.827925277306
 20
5259.35659231201
 30
0.0
 10
6280.785903953755
 20
5259.372943553165
 30
0.0
  0
SPLINE
  5
14D
330
1F
100
AcDbEntity
  8
0
  6
Continuous
 62
     7
370
    25
100
AcDbSpline
210
0.0
220
0.0
230
1.0
 70
     8
 71
     3
 72
     9
 73
     5
 74
     0
 42
0.000000001
 43
0.00000001
 40
0.0
 40
0.0
 40
0.0
 40
0.0
 40
0.5618111843584164
 40
1.0
 40
1.0
 40
1.0
 40
1.0
 10
6280.785903953755
 20
5259.372943553165
 30
0.0
 10
6280.705531727132
 20
5259.400006678255
 30
0.0
 10
6280.562472584024
 20
5259.44817788923
 30
0.0
 10
6280.412314337475
 20
5259.461884113029
 30
0.0
 10
6280.346516673261
 20
5259.467890027002
 30
0.0
  0
SPLINE
  5
14E
330
1F
100
AcDbEntity
  8
0
  6
Continuous
 62
     7
370
    25
100
AcDbSpline
210
0.0
220
0.0
230
1.0
 70
     8
 71
     3
 72
     9
 73
     5
 74
     0
 42
0.000000001
 43
0.00000001
 40
0.0
 40
0.0
 40
0.0
 40
0.0
 40
0.5020142133593457
 40
1.0
 40
1.0
 40
1.0
 40
1.0
 10
6280.346516673261
 20
5259.467890027002
 30
0.0
 10
6280.420335354397
 20
5259.479641252746
 30
0.0
 10
6280.567380356653
 20
5259.503049406201
 30
0.0
 10
6280.71316662733
 20
5259.472838895319
 30
0.0
 10
6280.785766118014
 20
5259.457794490293
 30
0.0
  0
SPLINE
  5
14F
330
1F
100
AcDbEntity
  8
0
  6
Continuous
 62
     7
370
    25
100
AcDbSpline
210
0.0
220
0.0
230
1.0
 70
     8
 71
     3
 72
     9
 73
     5
 74
     0
 42
0.000000001
 43
0.00000001
 40
0.0
 40
0.0
 40
0.0
 40
0.0
 40
0.5288671301487494
 40
1.0
 40
1.0
 40
1.0
 40
1.0
 10
6280.785766118014
 20
5259.457794490293
 30
0.0
 10
6280.898676999512
 20
5259.426517984537
 30
0.0
 10
6281.112172743643
 20
5259.367379301162
 30
0.0
 10
6281.314725689393
 20
5259.277769326294
 30
0.0
 10
6281.41015504002
 20
5259.235551121667
 30
0.0
  0
SPLINE
  5
150
330
1F
100
AcDbEntity
  8
0
  6
Continuous
 62
     7
370
    25
100
AcDbSpline
210
0.0
220
0.0
230
1.0
 70
     8
 71
     3
 72
     9
 73
     5
 74
     0
 42
0.000000001
 43
0.00000001
 40
0.0
 40
0.0
 40
0.0
 40
0.0
 40
0.5926280705620592
 40
1.0
 40
1.0
 40
1.0
 40
1.0
 10
6281.41015504002
 20
5259.235551121667
 30
0.0
 10
6281.426852967385
 20
5259.260119985572
 30
0.0
 10
6281.455029032936
 20
5259.301577461389
 30
0.0
 10
6281.483460227957
 20
5259.342860317617
 30
0.0
 10
6281.495042298729
 20
5259.359677794412
 30
0.0
  0
SPLINE
  5
151
330
1F
100
AcDbEntity
  8
0
  6
Continuous
 62
     7
370
    25
100
AcDbSpline
210
0.0
220
0.0
230
1.0
 70
     8
 71
     3
 72
     9
 73
     5
 74
     0
 42
0.000000001
 43
0.00000001
 40
0.0
 40
0.0
 40
0.0
 40
0.0
 40
0.6284137981318998
 40
1.0
 40
1.0
 40
1.0
 40
1.0
 10
6281.495042298729
 20
5259.359677794412
 30
0.0
 10
6281.552917262205
 20
5259.429811266256
 30
0.0
 10
6281.6450141634
 20
5259.541415231753
 30
0.0
 10
6281.780920275509
 20
5259.585089860287
 30
0.0
 10
6281.831421111518
 20
5259.601318749622
 30
0.0
  0
SPLINE
  5
152
330
1F
100
AcDbEntity
  8
0
  6
Continuous
 62
     7
370
    25
100
AcDbSpline
210
0.0
220
0.0
230
1.0
 70
     8
 71
     3
 72
    10
 73
     6
 74
     0
 42
0.000000001
 43
0.00000001
 40
0.0
 40
0.0
 40
0.0
 40
0.0
 40
0.2423419237921231
 40
0.5033219795567643
 40
1.0
 40
1.0
 40
1.0
 40
1.0
 10
6281.831421111518
 20
5259.601318749622
 30
0.0
 10
6281.876505975395
 20
5259.602631733143
 30
0.0
 10
6281.970143108333
 20
5259.60535867966
 30
0.0
 10
6282.140493451223
 20
5259.521531199538
 30
0.0
 10
6282.2369794652
 20
5259.420312657167
 30
0.0
 10
6282.300230269128
 20
5259.353959473804
 30
0.0
  0
SPLINE
  5
153
330
1F
100
AcDbEntity
  8
0
  6
Continuous
 62
     7
370
    25
100
AcDbSpline
210
0.0
220
0.0
230
1.0
 70
     8
 71
     3
 72
     9
 73
     5
 74
     0
 42
0.000000001
 43
0.00000001
 40
0.0
 40
0.0
 40
0.0
 40
0.0
 40
0.5609913885362793
 40
1.0
 40
1.0
 40
1.0
 40
1.0
 10
6282.300230269128
 20
5259.353959473804
 30
0.0
 10
6282.310805242856
 20
5259.340054672858
 30
0.0
 10
6282.329655752763
 20
5259.31526855095
 30
0.0
 10
6282.348422293555
 20
5259.290418801285
 30
0.0
 10
6282.35666096657
 20
5259.279509547189
 30
0.0
  0
SPLINE
  5
154
330
1F
100
AcDbEntity
  8
0
  6
Continuous
 62
     7
370
    25
100
AcDbSpline
210
0.0
220
0.0
230
1.0
 70
     8
 71
     3
 72
     9
 73
     5
 74
     0
 42
0.000000001
 43
0.00000001
 40
0.0
 40
0.0
 40
0.0
 40
0.0
 40
0.5751949879803707
 40
1.0
 40
1.0
 40
1.0
 40
1.0
 10
6282.35666096657
 20
5259.279509547189
 30
0.0
 10
6282.369741332753
 20
5259.285399512086
 30
0.0
 10
6282.392482084075
 20
5259.295639456835
 30
0.0
 10
6282.414829281476
 20
5259.306710077964
 30
0.0
 10
6282.424322482938
 20
5259.311412933305
 30
0.0
  0
SPLINE
  5
155
330
1F
100
AcDbEntity
  8
0
  6
Continuous
 62
     7
370
    25
100
AcDbSpline
210
0.0
220
0.0
230
1.0
 70
     8
 71
     3
 72
     9
 73
     5
 74
     0
 42
0.000000001
 43
0.00000001
 40
0.0
 40
0.0
 40
0.0
 40
0.0
 40
0.5841548686069469
 40
1.0
 40
1.0
 40
1.0
 40
1.0
 10
6282.424322482938
 20
5259.311412933305
 30
0.0
 10
6282.435867530295
 20
5259.316651299073
 30
0.0
 10
6282.455631205949
 20
5259.325618725432
 30
0.0
 10
6282.47595383136
 20
5259.33322709946
 30
0.0
 10
6282.484404896194
 20
5259.336391004756
 30
0.0
  0
SPLINE
  5
156
330
1F
100
AcDbEntity
  8
0
  6
Continuous
 62
     7
370
    25
100
AcDbSpline
210
0.0
220
0.0
230
1.0
 70
     8
 71
     3
 72
     9
 73
     5
 74
     0
 42
0.000000001
 43
0.00000001
 40
0.0
 40
0.0
 40
0.0
 40
0.0
 40
0.566237826764532
 40
0.9999999999999999
 40
0.9999999999999999
 40
0.9999999999999999
 40
0.9999999999999999
 10
6282.484404896194
 20
5259.336391004756
 30
0.0
 10
6282.522487616719
 20
5259.351804351854
 30
0.0
 10
6282.589743315166
 20
5259.379024976067
 30
0.0
 10
6282.659482452937
 20
5259.398978411086
 30
0.0
 10
6282.689732652897
 20
5259.407633456424
 30
0.0
  0
SPLINE
  5
157
330
1F
100
AcDbEntity
  8
0
  6
Continuous
 62
     7
370
    25
100
AcDbSpline
210
0.0
220
0.0
230
1.0
 70
     8
 71
     3
 72
     9
 73
     5
 74
     0
 42
0.000000001
 43
0.00000001
 40
0.0
 40
0.0
 40
0.0
 40
0.0
 40
0.5503970533340765
 40
1.0
 40
1.0
 40
1.0
 40
1.0
 10
6282.689732652897
 20
5259.407633456424
 30
0.0
 10
6282.803964603218
 20
5259.430434007492
 30
0.0
 10
6283.011509228735
 20
5259.471859649089
 30
0.0
 10
6283.219979627682
 20
5259.438082345846
 30
0.0
 10
6283.313708533341
 20
5259.422895970777
 30
0.0
  0
SPLINE
  5
158
330
1F
100
AcDbEntity
  8
0
  6
Continuous
 62
     7
370
    25
100
AcDbSpline
210
0.0
220
0.0
230
1.0
 70
     8
 71
     3
 72
     9
 73
     5
 74
     0
 42
0.000000001
 43
0.00000001
 40
0.0
 40
0.0
 40
0.0
 40
0.0
 40
0.573754837111725
 40
1.0
 40
1.0
 40
1.0
 40
1.0
 10
6283.313708533341
 20
5259.422895970777
 30
0.0
 10
6283.190462879768
 20
5259.411782295477
 30
0.0
 10
6282.975657451386
 20
5259.392412218605
 30
0.0
 10
6282.775328607291
 20
5259.313664133444
 30
0.0
 10
6282.689939406509
 20
5259.280098143056
 30
0.0
  0
SPLINE
  5
159
330
1F
100
AcDbEntity
  8
0
  6
Continuous
 62
     7
370
    25
100
AcDbSpline
210
0.0
220
0.0
230
1.0
 70
     8
 71
     3
 72
     9
 73
     5
 74
     0
 42
0.000000001
 43
0.00000001
 40
0.0
 40
0.0
 40
0.0
 40
0.0
 40
0.5623374255598355
 40
0.9999999999999999
 40
0.9999999999999999
 40
0.9999999999999999
 40
0.9999999999999999
 10
6282.689939406509
 20
5259.280098143056
 30
0.0
 10
6282.651027345128
 20
5259.261570182139
 30
0.0
 10
6282.581830347714
 20
5259.228622062244
 30
0.0
 10
6282.514207596982
 20
5259.192560161116
 30
0.0
 10
6282.484611649806
 20
5259.176777216629
 30
0.0
  0
SPLINE
  5
15A
330
1F
100
AcDbEntity
  8
0
  6
Continuous
 62
     7
370
    25
100
AcDbSpline
210
0.0
220
0.0
230
1.0
 70
     8
 71
     3
 72
     9
 73
     5
 74
     0
 42
0.000000001
 43
0.00000001
 40
0.0
 40
0.0
 40
0.0
 40
0.0
 40
0.5570919593656648
 40
1.0
 40
1.0
 40
1.0
 40
1.0
 10
6282.484611649806
 20
5259.176777216629
 30
0.0
 10
6282.473963559271
 20
5259.168764401443
 30
0.0
 10
6282.454849855769
 20
5259.154381111482
 30
0.0
 10
6282.433836306488
 20
5259.142971931206
 30
0.0
 10
6282.424529236549
 20
5259.137918713525
 30
0.0
  0
SPLINE
  5
15B
330
1F
100
AcDbEntity
  8
0
  6
Continuous
 62
     7
370
    25
100
AcDbSpline
210
0.0
220
0.0
230
1.0
 70
     8
 71
     3
 72
     9
 73
     5
 74
     0
 42
0.000000001
 43
0.00000001
 40
0.0
 40
0.0
 40
0.0
 40
0.0
 40
0.5604633711427248
 40
1.0
 40
1.0
 40
1.0
 40
1.0
 10
6282.424529236549
 20
5259.137918713525
 30
0.0
 10
6282.401391626799
 20
5259.12195944678
 30
0.0
 10
6282.360108626086
 20
5259.093484317867
 30
0.0
 10
6282.318800299126
 20
5259.065045943121
 30
0.0
 10
6282.300643776352
 20
5259.052546235755
 30
0.0
  0
SPLINE
  5
15C
330
1F
100
AcDbEntity
  8
0
  6
Continuous
 62
     7
370
    25
100
AcDbSpline
210
0.0
220
0.0
230
1.0
 70
     8
 71
     3
 72
    11
 73
     7
 74
     0
 42
0.000000001
 43
0.00000001
 40
0.0
 40
0.0
 40
0.0
 40
0.0
 40
0.3146294528167209
 40
0.5566927778129376
 40
0.742459815809811
 40
1.0
 40
1.0
 40
1.0
 40
1.0
 10
6282.300643776352
 20
5259.052546235755
 30
0.0
 10
6282.26704875267
 20
5259.029263818186
 30
0.0
 10
6282.20760706059
 20
5258.988068839155
 30
0.0
 10
6282.117788473689
 20
5258.951846446274
 30
0.0
 10
6282.030005945735
 20
5258.934192931972
 30
0.0
 10
6281.972471410118
 20
5258.939172444174
 30
0.0
 10
6281.939046610886
 20
5258.942065301374
 30
0.0
  0
SPLINE
  5
15D
330
1F
100
AcDbEntity
  8
0
  6
Continuous
 62
     7
370
    25
100
AcDbSpline
210
0.0
220
0.0
230
1.0
 70
     8
 71
     3
 72
    18
 73
    14
 74
     0
 42
0.000000001
 43
0.00000001
 40
0.0
 40
0.0
 40
0.0
 40
0.0
 40
0.0428733749895937
 40
0.0876726406896416
 40
0.1380993525535307
 40
0.1952201926383968
 40
0.3268360576222623
 40
0.4725351455286138
 40
0.6190853079636572
 40
0.7550359588436419
 40
0.8764950137214017
 40
0.9361302823717064
 40
1.0
 40
1.0
 40
1.0
 40
1.0
 10
6281.939046610886
 20
5258.942065301374
 30
0.0
 10
6281.936664575343
 20
5258.942361102941
 30
0.0
 10
6281.931793502179
 20
5258.94296599361
 30
0.0
 10
6281.92546464266
 20
5258.947667950417
 30
0.0
 10
6281.920223842671
 20
5258.954268269752
 30
0.0
 10
6281.914224753802
 20
5258.966104801133
 30
0.0
 10
6281.909598992924
 20
5258.984143294097
 30
0.0
 10
6281.908071369532
 20
5259.007578666201
 30
0.0
 10
6281.910844054893
 20
5259.031177315705
 30
0.0
 10
6281.918292462808
 20
5259.052457632585
 30
0.0
 10
6281.930013472793
 20
5259.066294860359
 30
0.0
 10
6281.942444704604
 20
5259.072282009773
 30
0.0
 10
6281.949287669497
 20
5259.072808015693
 30
0.0
 10
6281.9528264597
 20
5259.073080035881
 30
0.0
  0
LINE
  5
15E
330
1F
100
AcDbEntity
  8
0
  6
Continuous
 62
     7
370
    25
100
AcDbLine
 10
6281.9528264597
 20
5259.0730800359
 30
0.0
 11
6282.0344755098
 21
5259.0732178716
 31
0.0
  0
SPLINE
  5
15F
330
1F
100
AcDbEntity
  8
0
  6
Continuous
 62
     7
370
    25
100
AcDbSpline
210
0.0
220
0.0
230
1.0
 70
     8
 71
     3
 72
    11
 73
     7
 74
     0
 42
0.000000001
 43
0.00000001
 40
0.0
 40
0.0
 40
0.0
 40
0.0
 40
0.2689357000968246
 40
0.5572168150196605
 40
0.7796863744164259
 40
1.0
 40
1.0
 40
1.0
 40
1.0
 10
6282.034475509817
 20
5259.073217871622
 30
0.0
 10
6282.040871182016
 20
5259.074108553812
 30
0.0
 10
6282.054122587804
 20
5259.075953987844
 30
0.0
 10
6282.069946342266
 20
5259.086429307484
 30
0.0
 10
6282.081571135255
 20
5259.100104899854
 30
0.0
 10
6282.083157863693
 20
5259.110700849608
 30
0.0
 10
6282.08394736498
 20
5259.115973028377
 30
0.0
  0
SPLINE
  5
160
330
1F
100
AcDbEntity
  8
0
  6
Continuous
 62
     7
370
    25
100
AcDbSpline
210
0.0
220
0.0
230
1.0
 70
     8
 71
     3
 72
    11
 73
     7
 74
     0
 42
0.000000001
 43
0.00000001
 40
0.0
 40
0.0
 40
0.0
 40
0.0
 40
0.2796866977147953
 40
0.5653092708344334
 40
0.7906534493215902
 40
1.0
 40
1.0
 40
1.0
 40
1.0
 10
6282.08394736498
 20
5259.115973028377
 30
0.0
 10
6282.082644129056
 20
5259.12266210819
 30
0.0
 10
6282.080009998237
 20
5259.136182232179
 30
0.0
 10
6282.065039172322
 20
5259.149073036564
 30
0.0
 10
6282.049660864607
 20
5259.156866904797
 30
0.0
 10
6282.039318530283
 20
5259.157982364687
 30
0.0
 10
6282.034337674076
 20
5259.158519568876
 30
0.0
  0
LINE
  5
161
330
1F
100
AcDbEntity
  8
0
  6
Continuous
 62
     7
370
    25
100
AcDbLine
 10
6282.0343376741
 20
5259.1585195689
 30
0.0
 11
6281.8321102902
 21
5259.1581731169
 31
0.0
  0
LINE
  5
162
330
1F
100
AcDbEntity
  8
0
  6
Continuous
 62
     7
370
    25
100
AcDbLine
 10
6281.8321102902
 20
5259.1581731169
 30
0.0
 11
6281.70822483
 21
5259.1579346983
 31
0.0
  0
SPLINE
  5
163
330
1F
100
AcDbEntity
  8
0
  6
Continuous
 62
     7
370
    25
100
AcDbSpline
210
0.0
220
0.0
230
1.0
 70
     8
 71
     3
 72
    12
 73
     8
 74
     0
 42
0.000000001
 43
0.00000001
 40
0.0
 40
0.0
 40
0.0
 40
0.0
 40
0.1619847154554471
 40
0.355420971328837
 40
0.5611267536542793
 40
0.7933355621743011
 40
1.0
 40
1.0
 40
1.0
 40
1.0
 10
6281.708224830026
 20
5259.157934698299
 30
0.0
 10
6281.704451460161
 20
5259.157427710201
 30
0.0
 10
6281.69617206924
 20
5259.156315295355
 30
0.0
 10
6281.684243176356
 20
5259.150319756055
 30
0.0
 10
6281.672370860923
 20
5259.141715526295
 30
0.0
 10
6281.661540617467
 20
5259.130367565439
 30
0.0
 10
6281.659458318843
 20
5259.120135591234
 30
0.0
 10
6281.658477769041
 20
5259.115317377285
 30
0.0
  0
SPLINE
  5
164
330
1F
100
AcDbEntity
  8
0
  6
Continuous
 62
     7
370
    25
100
AcDbSpline
210
0.0
220
0.0
230
1.0
 70
     8
 71
     3
 72
    11
 73
     7
 74
     0
 42
0.000000001
 43
0.00000001
 40
0.0
 40
0.0
 40
0.0
 40
0.0
 40
0.26897834848899
 40
0.5343392548138098
 40
0.7573504527858381
 40
0.9999999999999999
 40
0.9999999999999999
 40
0.9999999999999999
 40
0.9999999999999999
 10
6281.658477769041
 20
5259.115317377285
 30
0.0
 10
6281.659420313014
 20
5259.108710793359
 30
0.0
 10
6281.661292724852
 20
5259.095586476283
 30
0.0
 10
6281.674880163175
 20
5259.081763083004
 30
0.0
 10
6281.69109392104
 20
5259.073966615751
 30
0.0
 10
6281.702446821915
 20
5259.073089864383
 30
0.0
 10
6281.708362665767
 20
5259.072633001045
 30
0.0
  0
LINE
  5
165
330
1F
100
AcDbEntity
  8
0
  6
Continuous
 62
     7
370
    25
100
AcDbLine
 10
6281.7083626658
 20
5259.072633001
 30
0.0
 11
6281.7864284523
 21
5259.0727708368
 31
0.0
  0
SPLINE
  5
166
330
1F
100
AcDbEntity
  8
0
  6
Continuous
 62
     7
370
    25
100
AcDbSpline
210
0.0
220
0.0
230
1.0
 70
     8
 71
     3
 72
    17
 73
    13
 74
     0
 42
0.000000001
 43
0.00000001
 40
0.0
 40
0.0
 40
0.0
 40
0.0
 40
0.0544555221235577
 40
0.1072950799459341
 40
0.2216396007476969
 40
0.3548059182756288
 40
0.4999899369708311
 40
0.6451734712648729
 40
0.7783386024164364
 40
0.8926983788062237
 40
0.9455430568087815
 40
1.0
 40
1.0
 40
1.0
 40
1.0
 10
6281.786428452278
 20
5259.072770836786
 30
0.0
 10
6281.789384024972
 20
5259.072505989972
 30
0.0
 10
6281.795207463921
 20
5259.071984155657
 30
0.0
 10
6281.805888361366
 20
5259.065955452239
 30
0.0
 10
6281.815791331435
 20
5259.052453226644
 30
0.0
 10
6281.822180444197
 20
5259.032053433325
 30
0.0
 10
6281.824375328482
 20
5259.009170221864
 30
0.0
 10
6281.822255011104
 20
5258.986279838823
 30
0.0
 10
6281.815930783113
 20
5258.965859311598
 30
0.0
 10
6281.806073206242
 20
5258.952322929619
 30
0.0
 10
6281.795411888089
 20
5258.946257222221
 30
0.0
 10
6281.789589926004
 20
5258.945715397401
 30
0.0
 10
6281.786635205889
 20
5258.945440414384
 30
0.0
  0
SPLINE
  5
167
330
1F
100
AcDbEntity
  8
0
  6
Continuous
 62
     7
370
    25
100
AcDbSpline
210
0.0
220
0.0
230
1.0
 70
     8
 71
     3
 72
     9
 73
     5
 74
     0
 42
0.000000001
 43
0.00000001
 40
0.0
 40
0.0
 40
0.0
 40
0.0
 40
0.520651001705494
 40
1.0
 40
1.0
 40
1.0
 40
1.0
 10
6281.786635205889
 20
5258.945440414384
 30
0.0
 10
6281.734215294928
 20
5258.951824908714
 30
0.0
 10
6281.63353381964
 20
5258.96408743065
 30
0.0
 10
6281.540289981907
 20
5259.003855985216
 30
0.0
 10
6281.495593641693
 20
5259.022919002012
 30
0.0
  0
SPLINE
  5
168
330
1F
100
AcDbEntity
  8
0
  6
Continuous
 62
     7
370
    25
100
AcDbSpline
210
0.0
220
0.0
230
1.0
 70
     8
 71
     3
 72
     9
 73
     5
 74
     0
 42
0.000000001
 43
0.00000001
 40
0.0
 40
0.0
 40
0.0
 40
0.0
 40
0.5574071015342957
 40
1.0
 40
1.0
 40
1.0
 40
1.0
 10
6281.495593641693
 20
5259.022919002012
 30
0.0
 10
6281.415729831553
 20
5259.062201777743
 30
0.0
 10
6281.272452485572
 20
5259.132675899124
 30
0.0
 10
6281.131912849202
 20
5259.208453514268
 30
0.0
 10
6281.069711004192
 20
5259.241992148593
 30
0.0
  0
SPLINE
  5
169
330
1F
100
AcDbEntity
  8
0
  6
Continuous
 62
     7
370
    25
100
AcDbSpline
210
0.0
220
0.0
230
1.0
 70
     8
 71
     3
 72
     9
 73
     5
 74
     0
 42
0.000000001
 43
0.00000001
 40
0.0
 40
0.0
 40
0.0
 40
0.0
 40
0.4957368740612911
 40
1.0
 40
1.0
 40
1.0
 40
1.0
 10
6282.12893955856
 20
5255.276755902008
 30
0.0
 10
6282.087164501894
 20
5255.268478688898
 30
0.0
 10
6282.00289589318
 20
5255.251781901662
 30
0.0
 10
6281.91702758985
 20
5255.249102111239
 30
0.0
 10
6281.873727370793
 20
5255.247750791744
 30
0.0
  0
SPLINE
  5
16A
330
1F
100
AcDbEntity
  8
0
  6
Continuous
 62
     7
370
    25
100
AcDbSpline
210
0.0
220
0.0
230
1.0
 70
     8
 71
     3
 72
    10
 73
     6
 74
     0
 42
0.000000001
 43
0.00000001
 40
0.0
 40
0.0
 40
0.0
 40
0.0
 40
0.2591159145868518
 40
0.5380436746261393
 40
1.0
 40
1.0
 40
1.0
 40
1.0
 10
6281.857673232252
 20
5258.786035242513
 30
0.0
 10
6281.900167227483
 20
5258.791100357695
 30
0.0
 10
6281.988404283012
 20
5258.801617863688
 30
0.0
 10
6282.137236932159
 20
5258.875558807943
 30
0.0
 10
6282.23797153463
 20
5258.943154025155
 30
0.0
 10
6282.300781612093
 20
5258.985301020578
 30
0.0
  0
SPLINE
  5
16B
330
1F
100
AcDbEntity
  8
0
  6
Continuous
 62
     7
370
    25
100
AcDbSpline
210
0.0
220
0.0
230
1.0
 70
     8
 71
     3
 72
     9
 73
     5
 74
     0
 42
0.000000001
 43
0.00000001
 40
0.0
 40
0.0
 40
0.0
 40
0.0
 40
0.5720071743800402
 40
1.0
 40
1.0
 40
1.0
 40
1.0
 10
6282.300781612093
 20
5258.985301020578
 30
0.0
 10
6282.324290371174
 20
5259.001033055557
 30
0.0
 10
6282.365389084852
 20
5259.028536268251
 30
0.0
 10
6282.406900489093
 20
5259.055412042063
 30
0.0
 10
6282.424667072291
 20
5259.066914680437
 30
0.0
  0
SPLINE
  5
16C
330
1F
100
AcDbEntity
  8
0
  6
Continuous
 62
     7
370
    25
100
AcDbSpline
210
0.0
220
0.0
230
1.0
 70
     8
 71
     3
 72
     9
 73
     5
 74
     0
 42
0.000000001
 43
0.00000001
 40
0.0
 40
0.0
 40
0.0
 40
0.0
 40
0.5617717129072269
 40
0.9999999999999999
 40
0.9999999999999999
 40
0.9999999999999999
 40
0.9999999999999999
 10
6281.873727370793
 20
5255.247750791744
 30
0.0
 10
6281.862695937771
 20
5255.516513696276
 30
0.0
 10
6281.843059076803
 20
5255.994933841607
 30
0.0
 10
6281.84062029901
 20
5256.473737880591
 30
0.0
 10
6281.839551557595
 20
5256.683563354448
 30
0.0
  0
LINE
  5
16D
330
1F
100
AcDbEntity
  8
0
  6
Continuous
 62
     7
370
    25
100
AcDbLine
 10
6281.8395515576
 20
5256.6835633544
 30
0.0
 11
6281.8359687597
 21
5256.6586560635
 31
0.0
  0
SPLINE
  5
16E
330
1F
100
AcDbEntity
  8
0
  6
Continuous
 62
     7
370
    25
100
AcDbSpline
210
0.0
220
0.0
230
1.0
 70
     8
 71
     3
 72
     9
 73
     5
 74
     0
 42
0.000000001
 43
0.00000001
 40
0.0
 40
0.0
 40
0.0
 40
0.0
 40
0.5323595837410041
 40
1.0
 40
1.0
 40
1.0
 40
1.0
 10
6281.83596875965
 20
5256.658656063512
 30
0.0
 10
6281.815574060008
 20
5256.409143335512
 30
0.0
 10
6281.777264052513
 20
5255.94045124163
 30
0.0
 10
6281.801911882466
 20
5255.470933514146
 30
0.0
 10
6281.813438203925
 20
5255.251368048624
 30
0.0
  0
SPLINE
  5
16F
330
1F
100
AcDbEntity
  8
0
  6
Continuous
 62
     7
370
    25
100
AcDbSpline
210
0.0
220
0.0
230
1.0
 70
     8
 71
     3
 72
     9
 73
     5
 74
     0
 42
0.000000001
 43
0.00000001
 40
0.0
 40
0.0
 40
0.0
 40
0.0
 40
0.5334846480233658
 40
1.0
 40
1.0
 40
1.0
 40
1.0
 10
6281.813438203925
 20
5255.251368048624
 30
0.0
 10
6281.768921642923
 20
5255.253309399212
 30
0.0
 10
6281.685476765611
 20
5255.256948399125
 30
0.0
 10
6281.603356787518
 20
5255.272100978991
 30
0.0
 10
6281.565046557033
 20
5255.279169890121
 30
0.0
  0
SPLINE
  5
170
330
1F
100
AcDbEntity
  8
0
  6
Continuous
 62
     7
370
    25
100
AcDbSpline
210
0.0
220
0.0
230
1.0
 70
     8
 71
     3
 72
     9
 73
     5
 74
     0
 42
0.000000001
 43
0.00000001
 40
0.0
 40
0.0
 40
0.0
 40
0.0
 40
0.6423963030847364
 40
1.0
 40
1.0
 40
1.0
 40
1.0
 10
6281.565046557033
 20
5255.279169890121
 30
0.0
 10
6281.583605149921
 20
5255.879341482961
 30
0.0
 10
6281.612494782065
 20
5256.813611481023
 30
0.0
 10
6281.527401283214
 20
5257.743783070329
 30
0.0
 10
6281.496971533442
 20
5258.07641586943
 30
0.0
  0
SPLINE
  5
171
330
1F
100
AcDbEntity
  8
0
  6
Continuous
 62
     7
370
    25
100
AcDbSpline
210
0.0
220
0.0
230
1.0
 70
     8
 71
     3
 72
    10
 73
     6
 74
     0
 42
0.000000001
 43
0.00000001
 40
0.0
 40
0.0
 40
0.0
 40
0.0
 40
0.6761698887014395
 40
0.8567424536487213
 40
1.0
 40
1.0
 40
1.0
 40
1.0
 10
6281.496971533442
 20
5258.07641586943
 30
0.0
 10
6281.458841639048
 20
5258.329805599268
 30
0.0
 10
6281.410529077625
 20
5258.650863579664
 30
0.0
 10
6281.259495519957
 20
5259.001408651616
 30
0.0
 10
6281.17979630854
 20
5259.094735953228
 30
0.0
 10
6281.144538582111
 20
5259.136022540763
 30
0.0
  0
SPLINE
  5
172
330
1F
100
AcDbEntity
  8
0
  6
Continuous
 62
     7
370
    25
100
AcDbSpline
210
0.0
220
0.0
230
1.0
 70
     8
 71
     3
 72
    10
 73
     6
 74
     0
 42
0.000000001
 43
0.00000001
 40
0.0
 40
0.0
 40
0.0
 40
0.0
 40
0.2317062796949891
 40
0.5090635407843763
 40
1.0
 40
1.0
 40
1.0
 40
1.0
 10
6281.144538582111
 20
5259.136022540763
 30
0.0
 10
6281.174644609066
 20
5259.127806808732
 30
0.0
 10
6281.240788179713
 20
5259.109756673693
 30
0.0
 10
6281.356115769595
 20
5259.039265220655
 30
0.0
 10
6281.441299458274
 20
5258.98172444227
 30
0.0
 10
6281.495731477434
 20
5258.944956126646
 30
0.0
  0
SPLINE
  5
173
330
1F
100
AcDbEntity
  8
0
  6
Continuous
 62
     7
370
    25
100
AcDbSpline
210
0.0
220
0.0
230
1.0
 70
     8
 71
     3
 72
     9
 73
     5
 74
     0
 42
0.000000001
 43
0.00000001
 40
0.0
 40
0.0
 40
0.0
 40
0.0
 40
0.5923741660312939
 40
1.0
 40
1.0
 40
1.0
 40
1.0
 10
6281.495731477434
 20
5258.944956126646
 30
0.0
 10
6281.557760825738
 20
5258.903951436101
 30
0.0
 10
6281.662473947715
 20
5258.834730506332
 30
0.0
 10
6281.783378012819
 20
5258.802510524767
 30
0.0
 10
6281.832661633188
 20
5258.789376827911
 30
0.0
  0
LINE
  5
174
330
1F
100
AcDbEntity
  8
0
  6
Continuous
 62
     7
370
    25
100
AcDbLine
 10
6281.8326616332
 20
5258.7893768279
 30
0.0
 11
6281.8576732323
 21
5258.7860352425
 31
0.0
  0
SPLINE
  5
175
330
1F
100
AcDbEntity
  8
0
  6
Continuous
 62
     7
370
    25
100
AcDbSpline
210
0.0
220
0.0
230
1.0
 70
     8
 71
     3
 72
     9
 73
     5
 74
     0
 42
0.000000001
 43
0.00000001
 40
0.0
 40
0.0
 40
0.0
 40
0.0
 40
0.58300963986482
 40
0.9999999999999999
 40
0.9999999999999999
 40
0.9999999999999999
 40
0.9999999999999999
 10
6282.424667072291
 20
5259.066914680437
 30
0.0
 10
6282.43622845242
 20
5259.074051430965
 30
0.0
 10
6282.456058965226
 20
5259.086292653132
 30
0.0
 10
6282.476306470874
 20
5259.097829472103
 30
0.0
 10
6282.484749485547
 20
5259.102640214399
 30
0.0
  0
SPLINE
  5
176
330
1F
100
AcDbEntity
  8
0
  6
Continuous
 62
     7
370
    25
100
AcDbSpline
210
0.0
220
0.0
230
1.0
 70
     8
 71
     3
 72
     9
 73
     5
 74
     0
 42
0.000000001
 43
0.00000001
 40
0.0
 40
0.0
 40
0.0
 40
0.0
 40
0.592245740056358
 40
1.0
 40
1.0
 40
1.0
 40
1.0
 10
6282.484749485547
 20
5259.102640214399
 30
0.0
 10
6282.494343376615
 20
5259.107225892495
 30
0.0
 10
6282.510542549388
 20
5259.114968756287
 30
0.0
 10
6282.527362808432
 20
5259.12123665167
 30
0.0
 10
6282.53422134071
 20
5259.123792412714
 30
0.0
  0
SPLINE
  5
177
330
1F
100
AcDbEntity
  8
0
  6
Continuous
 62
     7
370
    25
100
AcDbSpline
210
0.0
220
0.0
230
1.0
 70
     8
 71
     3
 72
     9
 73
     5
 74
     0
 42
0.000000001
 43
0.00000001
 40
0.0
 40
0.0
 40
0.0
 40
0.0
 40
0.5347206913915934
 40
1.0
 40
1.0
 40
1.0
 40
1.0
 10
6282.53422134071
 20
5259.123792412714
 30
0.0
 10
6282.525376053963
 20
5259.114928124864
 30
0.0
 10
6282.508834171648
 20
5259.098350707921
 30
0.0
 10
6282.492444280595
 20
5259.081623035132
 30
0.0
 10
6282.484818403417
 20
5259.073839995101
 30
0.0
  0
SPLINE
  5
178
330
1F
100
AcDbEntity
  8
0
  6
Continuous
 62
     7
370
    25
100
AcDbSpline
210
0.0
220
0.0
230
1.0
 70
     8
 71
     3
 72
     9
 73
     5
 74
     0
 42
0.000000001
 43
0.00000001
 40
0.0
 40
0.0
 40
0.0
 40
0.0
 40
0.5494730591709585
 40
1.0
 40
1.0
 40
1.0
 40
1.0
 10
6282.484818403417
 20
5259.073839995101
 30
0.0
 10
6282.473418622047
 20
5259.059889672994
 30
0.0
 10
6282.452671869899
 20
5259.034501126868
 30
0.0
 10
6282.433412744852
 20
5259.007968581826
 30
0.0
 10
6282.424735990161
 20
5258.996014955476
 30
0.0
  0
SPLINE
  5
179
330
1F
100
AcDbEntity
  8
0
  6
Continuous
 62
     7
370
    25
100
AcDbSpline
210
0.0
220
0.0
230
1.0
 70
     8
 71
     3
 72
     9
 73
     5
 74
     0
 42
0.000000001
 43
0.00000001
 40
0.0
 40
0.0
 40
0.0
 40
0.0
 40
0.5407179815739078
 40
1.0
 40
1.0
 40
1.0
 40
1.0
 10
6282.424735990161
 20
5258.996014955476
 30
0.0
 10
6282.398988969238
 20
5258.95628022001
 30
0.0
 10
6282.35137261136
 20
5258.88279508206
 30
0.0
 10
6282.316940329401
 20
5258.802322991039
 30
0.0
 10
6282.301126201445
 20
5258.765363606647
 30
0.0
  0
SPLINE
  5
17A
330
1F
100
AcDbEntity
  8
0
  6
Continuous
 62
     7
370
    25
100
AcDbSpline
210
0.0
220
0.0
230
1.0
 70
     8
 71
     3
 72
    10
 73
     6
 74
     0
 42
0.000000001
 43
0.00000001
 40
0.0
 40
0.0
 40
0.0
 40
0.0
 40
0.193322578430842
 40
0.452982790021278
 40
1.0
 40
1.0
 40
1.0
 40
1.0
 10
6282.301126201445
 20
5258.765363606647
 30
0.0
 10
6282.237760672171
 20
5258.547297844685
 30
0.0
 10
6282.08928606318
 20
5258.036338193395
 30
0.0
 10
6282.050461226687
 20
5256.857631997097
 30
0.0
 10
6282.097227090219
 20
5255.915575330485
 30
0.0
 10
6282.12893955856
 20
5255.276755902008
 30
0.0
  0
LINE
  5
17B
330
1F
100
AcDbEntity
  8
0
  6
Continuous
 62
     7
370
    25
100
AcDbLine
 10
6282.4849562392
 20
5258.9855059115
 30
0.0
 11
6282.4875741869
 21
5258.9891939489
 31
0.0
  0
SPLINE
  5
17C
330
1F
100
AcDbEntity
  8
0
  6
Continuous
 62
     7
370
    25
100
AcDbSpline
210
0.0
220
0.0
230
1.0
 70
     8
 71
     3
 72
    10
 73
     6
 74
     0
 42
0.000000001
 43
0.00000001
 40
0.0
 40
0.0
 40
0.0
 40
0.0
 40
0.5525399007462737
 40
0.7679281781138888
 40
0.9999999999999999
 40
0.9999999999999999
 40
0.9999999999999999
 40
0.9999999999999999
 10
6283.533987742657
 20
5256.781918468908
 30
0.0
 10
6283.45045624816
 20
5256.498605477177
 30
0.0
 10
6283.334362933817
 20
5256.104852864413
 30
0.0
 10
6282.995652633044
 20
5255.689180210335
 30
0.0
 10
6282.798156521074
 20
5255.558187137649
 30
0.0
 10
6282.695726644987
 20
5255.490248563722
 30
0.0
  0
SPLINE
  5
17D
330
1F
100
AcDbEntity
  8
0
  6
Continuous
 62
     7
370
    25
100
AcDbSpline
210
0.0
220
0.0
230
1.0
 70
     8
 71
     3
 72
     9
 73
     5
 74
     0
 42
0.000000001
 43
0.00000001
 40
0.0
 40
0.0
 40
0.0
 40
0.0
 40
0.546712578368044
 40
1.0
 40
1.0
 40
1.0
 40
1.0
 10
6282.695726644987
 20
5255.490248563722
 30
0.0
 10
6282.658986508713
 20
5255.470691856552
 30
0.0
 10
6282.5917845863
 20
5255.434920396475
 30
0.0
 10
6282.522022221896
 20
5255.404460166637
 30
0.0
 10
6282.490399819607
 20
5255.390652927593
 30
0.0
  0
SPLINE
  5
17E
330
1F
100
AcDbEntity
  8
0
  6
Continuous
 62
     7
370
    25
100
AcDbSpline
210
0.0
220
0.0
230
1.0
 70
     8
 71
     3
 72
     9
 73
     5
 74
     0
 42
0.000000001
 43
0.00000001
 40
0.0
 40
0.0
 40
0.0
 40
0.0
 40
0.5455279810921154
 40
1.0
 40
1.0
 40
1.0
 40
1.0
 10
6282.490399819607
 20
5255.390652927593
 30
0.0
 10
6282.479576532523
 20
5255.385857712588
 30
0.0
 10
6282.459736510636
 20
5255.377067668502
 30
0.0
 10
6282.439509214941
 20
5255.369211663145
 30
0.0
 10
6282.430316475028
 20
5255.365641328529
 30
0.0
  0
SPLINE
  5
17F
330
1F
100
AcDbEntity
  8
0
  6
Continuous
 62
     7
370
    25
100
AcDbSpline
210
0.0
220
0.0
230
1.0
 70
     8
 71
     3
 72
     9
 73
     5
 74
     0
 42
0.000000001
 43
0.00000001
 40
0.0
 40
0.0
 40
0.0
 40
0.0
 40
0.5516710160660937
 40
1.0
 40
1.0
 40
1.0
 40
1.0
 10
6282.430316475028
 20
5255.365641328529
 30
0.0
 10
6282.407589983355
 20
5255.357595612777
 30
0.0
 10
6282.366394250732
 20
5255.343011348755
 30
0.0
 10
6282.324944998222
 20
5255.329164773364
 30
0.0
 10
6282.30636209696
 20
5255.322956952289
 30
0.0
  0
SPLINE
  5
180
330
1F
100
AcDbEntity
  8
0
  6
Continuous
 62
     7
370
    25
100
AcDbSpline
210
0.0
220
0.0
230
1.0
 70
     8
 71
     3
 72
     9
 73
     5
 74
     0
 42
0.000000001
 43
0.00000001
 40
0.0
 40
0.0
 40
0.0
 40
0.0
 40
0.5516894516332992
 40
1.0
 40
1.0
 40
1.0
 40
1.0
 10
6282.30636209696
 20
5255.322956952289
 30
0.0
 10
6282.282230821023
 20
5255.315584772694
 30
0.0
 10
6282.238490133459
 20
5255.302221857065
 30
0.0
 10
6282.194582009002
 20
5255.289420292916
 30
0.0
 10
6282.17489753365
 20
5255.283681216672
 30
0.0
  0
SPLINE
  5
181
330
1F
100
AcDbEntity
  8
0
  6
Continuous
 62
     7
370
    25
100
AcDbSpline
210
0.0
220
0.0
230
1.0
 70
     8
 71
     3
 72
     9
 73
     5
 74
     0
 42
0.000000001
 43
0.00000001
 40
0.0
 40
0.0
 40
0.0
 40
0.0
 40
0.5342588239660075
 40
0.9999999999999999
 40
0.9999999999999999
 40
0.9999999999999999
 40
0.9999999999999999
 10
6282.17489753365
 20
5255.283681216672
 30
0.0
 10
6282.135857302252
 20
5255.856906424829
 30
0.0
 10
6282.06278367268
 20
5256.929841830743
 30
0.0
 10
6282.201417879525
 20
5257.995808964328
 30
0.0
 10
6282.26598553806
 20
5258.492273750738
 30
0.0
  0
SPLINE
  5
182
330
1F
100
AcDbEntity
  8
0
  6
Continuous
 62
     7
370
    25
100
AcDbSpline
210
0.0
220
0.0
230
1.0
 70
     8
 71
     3
 72
     9
 73
     5
 74
     0
 42
0.000000001
 43
0.00000001
 40
0.0
 40
0.0
 40
0.0
 40
0.0
 40
0.5874987974203338
 40
1.0
 40
1.0
 40
1.0
 40
1.0
 10
6282.26598553806
 20
5258.492273750738
 30
0.0
 10
6282.272986427603
 20
5258.511047115966
 30
0.0
 10
6282.284902859728
 20
5258.543001845593
 30
0.0
 10
6282.296534775721
 20
5258.575061154233
 30
0.0
 10
6282.301332955057
 20
5258.5882856576
 30
0.0
  0
SPLINE
  5
183
330
1F
100
AcDbEntity
  8
0
  6
Continuous
 62
     7
370
    25
100
AcDbSpline
210
0.0
220
0.0
230
1.0
 70
     8
 71
     3
 72
     9
 73
     5
 74
     0
 42
0.000000001
 43
0.00000001
 40
0.0
 40
0.0
 40
0.0
 40
0.0
 40
0.5887638602469313
 40
1.0
 40
1.0
 40
1.0
 40
1.0
 10
6282.301332955057
 20
5258.5882856576
 30
0.0
 10
6282.322719432773
 20
5258.646579776893
 30
0.0
 10
6282.359043805174
 20
5258.745590812096
 30
0.0
 10
6282.405739703006
 20
5258.840113723533
 30
0.0
 10
6282.424942743773
 20
5258.87898496075
 30
0.0
  0
SPLINE
  5
184
330
1F
100
AcDbEntity
  8
0
  6
Continuous
 62
     7
370
    25
100
AcDbSpline
210
0.0
220
0.0
230
1.0
 70
     8
 71
     3
 72
     9
 73
     5
 74
     0
 42
0.000000001
 43
0.00000001
 40
0.0
 40
0.0
 40
0.0
 40
0.0
 40
0.5775111055000586
 40
1.0
 40
1.0
 40
1.0
 40
1.0
 10
6282.424942743773
 20
5258.87898496075
 30
0.0
 10
6282.435721445469
 20
5258.899930988772
 30
0.0
 10
6282.454385505072
 20
5258.936200469691
 30
0.0
 10
6282.475876522825
 20
5258.970861859347
 30
0.0
 10
6282.484956239158
 20
5258.985505911544
 30
0.0
  0
SPLINE
  5
185
330
1F
100
AcDbEntity
  8
0
  6
Continuous
 62
     7
370
    25
100
AcDbSpline
210
0.0
220
0.0
230
1.0
 70
     8
 71
     3
 72
     9
 73
     5
 74
     0
 42
0.000000001
 43
0.00000001
 40
0.0
 40
0.0
 40
0.0
 40
0.0
 40
0.558287077595113
 40
1.0
 40
1.0
 40
1.0
 40
1.0
 10
6282.487574186915
 20
5258.98919394894
 30
0.0
 10
6282.507604458706
 20
5258.97246371989
 30
0.0
 10
6282.543482544719
 20
5258.942496647892
 30
0.0
 10
6282.579067738931
 20
5258.912182486212
 30
0.0
 10
6282.59478617906
 20
5258.898792329267
 30
0.0
  0
SPLINE
  5
186
330
1F
100
AcDbEntity
  8
0
  6
Continuous
 62
     7
370
    25
100
AcDbSpline
210
0.0
220
0.0
230
1.0
 70
     8
 71
     3
 72
     9
 73
     5
 74
     0
 42
0.000000001
 43
0.00000001
 40
0.0
 40
0.0
 40
0.0
 40
0.0
 40
0.5166035222795985
 40
1.0
 40
1.0
 40
1.0
 40
1.0
 10
6282.59478617906
 20
5258.898792329267
 30
0.0
 10
6282.573393455483
 20
5258.853712193795
 30
0.0
 10
6282.531983123081
 20
5258.766449653901
 30
0.0
 10
6282.50069909094
 20
5258.675073762613
 30
0.0
 10
6282.485576499993
 20
5258.630902978614
 30
0.0
  0
SPLINE
  5
187
330
1F
100
AcDbEntity
  8
0
  6
Continuous
 62
     7
370
    25
100
AcDbSpline
210
0.0
220
0.0
230
1.0
 70
     8
 71
     3
 72
     9
 73
     5
 74
     0
 42
0.000000001
 43
0.00000001
 40
0.0
 40
0.0
 40
0.0
 40
0.0
 40
0.5431271326955521
 40
1.0
 40
1.0
 40
1.0
 40
1.0
 10
6282.485576499993
 20
5258.630902978614
 30
0.0
 10
6282.474118826893
 20
5258.591904397334
 30
0.0
 10
6282.453023078936
 20
5258.520100617093
 30
0.0
 10
6282.434174437476
 20
5258.447675580835
 30
0.0
 10
6282.425563004607
 20
5258.414586546854
 30
0.0
  0
SPLINE
  5
188
330
1F
100
AcDbEntity
  8
0
  6
Continuous
 62
     7
370
    25
100
AcDbSpline
210
0.0
220
0.0
230
1.0
 70
     8
 71
     3
 72
     9
 73
     5
 74
     0
 42
0.000000001
 43
0.00000001
 40
0.0
 40
0.0
 40
0.0
 40
0.0
 40
0.5351705908990736
 40
1.0
 40
1.0
 40
1.0
 40
1.0
 10
6282.425563004607
 20
5258.414586546854
 30
0.0
 10
6282.398458570696
 20
5258.297234312801
 30
0.0
 10
6282.347812226571
 20
5258.077954262573
 30
0.0
 10
6282.316928301872
 20
5257.855051793315
 30
0.0
 10
6282.302572545404
 20
5257.751440170244
 30
0.0
  0
SPLINE
  5
189
330
1F
100
AcDbEntity
  8
0
  6
Continuous
 62
     7
370
    25
100
AcDbSpline
210
0.0
220
0.0
230
1.0
 70
     8
 71
     3
 72
     9
 73
     5
 74
     0
 42
0.000000001
 43
0.00000001
 40
0.0
 40
0.0
 40
0.0
 40
0.0
 40
0.5620499348620068
 40
1.0
 40
1.0
 40
1.0
 40
1.0
 10
6282.302572545404
 20
5257.751440170244
 30
0.0
 10
6282.266662660549
 20
5257.405658692026
 30
0.0
 10
6282.202771745121
 20
5256.790443820943
 30
0.0
 10
6282.274141701187
 20
5256.176667960231
 30
0.0
 10
6282.305398178095
 20
5255.907864782051
 30
0.0
  0
SPLINE
  5
18A
330
1F
100
AcDbEntity
  8
0
  6
Continuous
 62
     7
370
    25
100
AcDbSpline
210
0.0
220
0.0
230
1.0
 70
     8
 71
     3
 72
     9
 73
     5
 74
     0
 42
0.000000001
 43
0.00000001
 40
0.0
 40
0.0
 40
0.0
 40
0.0
 40
0.5601480609114161
 40
1.0
 40
1.0
 40
1.0
 40
1.0
 10
6282.305398178095
 20
5255.907864782051
 30
0.0
 10
6282.311309831298
 20
5255.875436645868
 30
0.0
 10
6282.321863564525
 20
5255.817544566171
 30
0.0
 10
6282.332584206434
 20
5255.759683172662
 30
0.0
 10
6282.337299701566
 20
5255.73423272653
 30
0.0
  0
SPLINE
  5
18B
330
1F
100
AcDbEntity
  8
0
  6
Continuous
 62
     7
370
    25
100
AcDbSpline
210
0.0
220
0.0
230
1.0
 70
     8
 71
     3
 72
     9
 73
     5
 74
     0
 42
0.000000001
 43
0.00000001
 40
0.0
 40
0.0
 40
0.0
 40
0.0
 40
0.566619250887361
 40
1.0
 40
1.0
 40
1.0
 40
1.0
 10
6282.337299701566
 20
5255.73423272653
 30
0.0
 10
6282.331876637109
 20
5255.840070014933
 30
0.0
 10
6282.322305722516
 20
5256.026857329763
 30
0.0
 10
6282.310077425696
 20
5256.213488670737
 30
0.0
 10
6282.30477791726
 20
5256.294371101097
 30
0.0
  0
SPLINE
  5
18C
330
1F
100
AcDbEntity
  8
0
  6
Continuous
 62
     7
370
    25
100
AcDbSpline
210
0.0
220
0.0
230
1.0
 70
     8
 71
     3
 72
     9
 73
     5
 74
     0
 42
0.000000001
 43
0.00000001
 40
0.0
 40
0.0
 40
0.0
 40
0.0
 40
0.5495167987874451
 40
0.9999999999999999
 40
0.9999999999999999
 40
0.9999999999999999
 40
0.9999999999999999
 10
6282.30477791726
 20
5256.294371101097
 30
0.0
 10
6282.299170721278
 20
5256.381927258375
 30
0.0
 10
6282.288966854911
 20
5256.541260253237
 30
0.0
 10
6282.284666219371
 20
5256.700858104038
 30
0.0
 10
6282.282728855306
 20
5256.772754254774
 30
0.0
  0
LINE
  5
18D
330
1F
100
AcDbEntity
  8
0
  6
Continuous
 62
     7
370
    25
100
AcDbLine
 10
6282.2827288553
 20
5256.7727542548
 30
0.0
 11
6282.3041576564
 21
5256.7695169775
 31
0.0
  0
SPLINE
  5
18E
330
1F
100
AcDbEntity
  8
0
  6
Continuous
 62
     7
370
    25
100
AcDbSpline
210
0.0
220
0.0
230
1.0
 70
     8
 71
     3
 72
     9
 73
     5
 74
     0
 42
0.000000001
 43
0.00000001
 40
0.0
 40
0.0
 40
0.0
 40
0.0
 40
0.5725582241767875
 40
1.0
 40
1.0
 40
1.0
 40
1.0
 10
6282.304157656426
 20
5256.769516977504
 30
0.0
 10
6282.327693063258
 20
5256.763550368771
 30
0.0
 10
6282.368798763671
 20
5256.75312940461
 30
0.0
 10
6282.410350910895
 20
5256.744673774475
 30
0.0
 10
6282.428112034494
 20
5256.741059484914
 30
0.0
  0
SPLINE
  5
18F
330
1F
100
AcDbEntity
  8
0
  6
Continuous
 62
     7
370
    25
100
AcDbSpline
210
0.0
220
0.0
230
1.0
 70
     8
 71
     3
 72
     9
 73
     5
 74
     0
 42
0.000000001
 43
0.00000001
 40
0.0
 40
0.0
 40
0.0
 40
0.0
 40
0.5788655872985224
 40
1.0
 40
1.0
 40
1.0
 40
1.0
 10
6282.428112034494
 20
5256.741059484914
 30
0.0
 10
6282.439782692449
 20
5256.738471974637
 30
0.0
 10
6282.459943949588
 20
5256.734002007282
 30
0.0
 10
6282.480016765635
 20
5256.729151139923
 30
0.0
 10
6282.488470119232
 20
5256.727108272747
 30
0.0
  0
SPLINE
  5
190
330
1F
100
AcDbEntity
  8
0
  6
Continuous
 62
     7
370
    25
100
AcDbSpline
210
0.0
220
0.0
230
1.0
 70
     8
 71
     3
 72
     9
 73
     5
 74
     0
 42
0.000000001
 43
0.00000001
 40
0.0
 40
0.0
 40
0.0
 40
0.0
 40
0.5674059280329168
 40
1.0
 40
1.0
 40
1.0
 40
1.0
 10
6282.488470119232
 20
5256.727108272747
 30
0.0
 10
6282.52716673858
 20
5256.720599001788
 30
0.0
 10
6282.595365919159
 20
5256.709127019145
 30
0.0
 10
6282.664171029027
 20
5256.702225103722
 30
0.0
 10
6282.693935711676
 20
5256.699239376024
 30
0.0
  0
SPLINE
  5
191
330
1F
100
AcDbEntity
  8
0
  6
Continuous
 62
     7
370
    25
100
AcDbSpline
210
0.0
220
0.0
230
1.0
 70
     8
 71
     3
 72
     9
 73
     5
 74
     0
 42
0.000000001
 43
0.00000001
 40
0.0
 40
0.0
 40
0.0
 40
0.0
 40
0.4854387561042808
 40
1.0
 40
1.0
 40
1.0
 40
1.0
 10
6282.693935711676
 20
5256.699239376024
 30
0.0
 10
6282.831386428772
 20
5256.696817625581
 30
0.0
 10
6283.114533819391
 20
5256.691828838813
 30
0.0
 10
6283.391481301677
 20
5256.751311167744
 30
0.0
 10
6283.533987742657
 20
5256.781918468908
 30
0.0
  0
SPLINE
  5
192
330
1F
100
AcDbEntity
  8
0
  6
Continuous
 62
     7
370
    25
100
AcDbSpline
210
0.0
220
0.0
230
1.0
 70
     8
 71
     3
 72
     9
 73
     5
 74
     0
 42
0.000000001
 43
0.00000001
 40
0.0
 40
0.0
 40
0.0
 40
0.0
 40
0.5460393734280082
 40
1.0
 40
1.0
 40
1.0
 40
1.0
 10
6281.497936383629
 20
5257.459671708778
 30
0.0
 10
6281.504486815375
 20
5257.064716034193
 30
0.0
 10
6281.516483078032
 20
5256.341406152517
 30
0.0
 10
6281.508418425075
 20
5255.61805028955
 30
0.0
 10
6281.504757390166
 20
5255.289675208763
 30
0.0
  0
SPLINE
  5
193
330
1F
100
AcDbEntity
  8
0
  6
Continuous
 62
     7
370
    25
100
AcDbSpline
210
0.0
220
0.0
230
1.0
 70
     8
 71
     3
 72
     9
 73
     5
 74
     0
 42
0.000000001
 43
0.00000001
 40
0.0
 40
0.0
 40
0.0
 40
0.0
 40
0.6511609908710152
 40
1.0
 40
1.0
 40
1.0
 40
1.0
 10
6281.096169412875
 20
5258.338102611736
 30
0.0
 10
6281.148351135447
 20
5258.447237457744
 30
0.0
 10
6281.228487573751
 20
5258.614837863078
 30
0.0
 10
6281.24006349059
 20
5258.798894268743
 30
0.0
 10
6281.24410162195
 20
5258.863100322917
 30
0.0
  0
SPLINE
  5
194
330
1F
100
AcDbEntity
  8
0
  6
Continuous
 62
     7
370
    25
100
AcDbSpline
210
0.0
220
0.0
230
1.0
 70
     8
 71
     3
 72
     9
 73
     5
 74
     0
 42
0.000000001
 43
0.00000001
 40
0.0
 40
0.0
 40
0.0
 40
0.0
 40
0.555077151274496
 40
1.0
 40
1.0
 40
1.0
 40
1.0
 10
6281.24410162195
 20
5258.863100322917
 30
0.0
 10
6281.318308175947
 20
5258.608132530729
 30
0.0
 10
6281.451995094651
 20
5258.148794956477
 30
0.0
 10
6281.483790071815
 20
5257.671867590904
 30
0.0
 10
6281.497936383629
 20
5257.459671708778
 30
0.0
  0
LINE
  5
195
330
1F
100
AcDbEntity
  8
0
  6
Continuous
 62
     7
370
    25
100
AcDbLine
 10
6281.5047573902
 20
5255.2896752088
 30
0.0
 11
6281.5012435101
 21
5255.2933297185
 31
0.0
  0
SPLINE
  5
196
330
1F
100
AcDbEntity
  8
0
  6
Continuous
 62
     7
370
    25
100
AcDbSpline
210
0.0
220
0.0
230
1.0
 70
     8
 71
     3
 72
     9
 73
     5
 74
     0
 42
0.000000001
 43
0.00000001
 40
0.0
 40
0.0
 40
0.0
 40
0.0
 40
0.6052556067516017
 40
1.0
 40
1.0
 40
1.0
 40
1.0
 10
6281.501243510092
 20
5255.293329718545
 30
0.0
 10
6281.340895011018
 20
5255.357596403264
 30
0.0
 10
6281.075968098678
 20
5255.463777467929
 30
0.0
 10
6280.871950707648
 20
5255.661242767895
 30
0.0
 10
6280.791415986413
 20
5255.739191087917
 30
0.0
  0
SPLINE
  5
197
330
1F
100
AcDbEntity
  8
0
  6
Continuous
 62
     7
370
    25
100
AcDbSpline
210
0.0
220
0.0
230
1.0
 70
     8
 71
     3
 72
    10
 73
     6
 74
     0
 42
0.000000001
 43
0.00000001
 40
0.0
 40
0.0
 40
0.0
 40
0.0
 40
0.285261884958771
 40
0.5660662656164328
 40
1.0
 40
1.0
 40
1.0
 40
1.0
 10
6280.791415986413
 20
5255.739191087917
 30
0.0
 10
6280.683555459193
 20
5255.911095759781
 30
0.0
 10
6280.46951983414
 20
5256.25221891985
 30
0.0
 10
6280.497231359102
 20
5256.97930785835
 30
0.0
 10
6280.678438487937
 20
5257.442967219718
 30
0.0
 10
6280.788453449303
 20
5257.724465343193
 30
0.0
  0
SPLINE
  5
198
330
1F
100
AcDbEntity
  8
0
  6
Continuous
 62
     7
370
    25
100
AcDbSpline
210
0.0
220
0.0
230
1.0
 70
     8
 71
     3
 72
     9
 73
     5
 74
     0
 42
0.000000001
 43
0.00000001
 40
0.0
 40
0.0
 40
0.0
 40
0.0
 40
0.6859488939914773
 40
1.0
 40
1.0
 40
1.0
 40
1.0
 10
6280.788453449303
 20
5257.724465343193
 30
0.0
 10
6280.857402482606
 20
5257.865485428416
 30
0.0
 10
6280.957918765824
 20
5258.071069381475
 30
0.0
 10
6281.063128256093
 20
5258.274283114213
 30
0.0
 10
6281.096169412875
 20
5258.338102611736
 30
0.0
  0
SPLINE
  5
199
330
1F
100
AcDbEntity
  8
0
  6
Continuous
 62
     7
370
    25
100
AcDbSpline
210
0.0
220
0.0
230
1.0
 70
     8
 71
     3
 72
    17
 73
    13
 74
     0
 42
0.000000001
 43
0.00000001
 40
0.0
 40
0.0
 40
0.0
 40
0.0
 40
0.0988534222164526
 40
0.1852326012410771
 40
0.2653777632899015
 40
0.3822454293395325
 40
0.5000050355559901
 40
0.6177518261263564
 40
0.734622145350213
 40
0.8147369974048616
 40
0.9011181693943507
 40
1.0
 40
1.0
 40
1.0
 40
1.0
 10
6281.45204732641
 20
5259.682209703163
 30
0.0
 10
6281.45209202847
 20
5259.677562984209
 30
0.0
 10
6281.45217579167
 20
5259.668855912469
 30
0.0
 10
6281.456755826206
 20
5259.657056754596
 30
0.0
 10
6281.465091267656
 20
5259.646561819837
 30
0.0
 10
6281.478139196358
 20
5259.63890047719
 30
0.0
 10
6281.494672529553
 20
5259.636162326606
 30
0.0
 10
6281.511199806259
 20
5259.63894792146
 30
0.0
 10
6281.524217281511
 20
5259.646656801097
 30
0.0
 10
6281.532520667738
 20
5259.657175035089
 30
0.0
 10
6281.537059698809
 20
5259.668990739422
 30
0.0
 10
6281.537112928202
 20
5259.677699399541
 30
0.0
 10
6281.53714133873
 20
5259.682347538904
 30
0.0
  0
SPLINE
  5
19A
330
1F
100
AcDbEntity
  8
0
  6
Continuous
 62
     7
370
    25
100
AcDbSpline
210
0.0
220
0.0
230
1.0
 70
     8
 71
     3
 72
    17
 73
    13
 74
     0
 42
0.000000001
 43
0.00000001
 40
0.0
 40
0.0
 40
0.0
 40
0.0
 40
0.0989524845156738
 40
0.1854080283264821
 40
0.2655636986295996
 40
0.3823833706724916
 40
0.5000099855474918
 40
0.6176350229647227
 40
0.7344411525550864
 40
0.8145897232491275
 40
0.9010451144533933
 40
1.0
 40
1.0
 40
1.0
 40
1.0
 10
6281.53714133873
 20
5259.682347538904
 30
0.0
 10
6281.537096830441
 20
5259.687004056585
 30
0.0
 10
6281.53701343492
 20
5259.695729009438
 30
0.0
 10
6281.532434963405
 20
5259.707552990551
 30
0.0
 10
6281.524100804096
 20
5259.718070006748
 30
0.0
 10
6281.511055605291
 20
5259.72575601682
 30
0.0
 10
6281.494515654337
 20
5259.728497224963
 30
0.0
 10
6281.47798503463
 20
5259.725703244705
 30
0.0
 10
6281.464965948561
 20
5259.717975172735
 30
0.0
 10
6281.456666822722
 20
5259.707431477155
 30
0.0
 10
6281.452130028566
 20
5259.695591613388
 30
0.0
 10
6281.452076105542
 20
5259.686866410701
 30
0.0
 10
6281.45204732641
 20
5259.682209703163
 30
0.0
  0
SPLINE
  5
19B
330
1F
100
AcDbEntity
  8
0
  6
Continuous
 62
     7
370
    25
100
AcDbSpline
210
0.0
220
0.0
230
1.0
 70
     8
 71
     3
 72
    15
 73
    11
 74
     0
 42
0.000000001
 43
0.00000001
 40
0.0
 40
0.0
 40
0.0
 40
0.0
 40
0.1250099269957542
 40
0.2498374077677961
 40
0.3747102637877414
 40
0.4997632631164237
 40
0.6248510207158631
 40
0.7498110653201278
 40
0.8747780283615184
 40
1.0
 40
1.0
 40
1.0
 40
1.0
 10
6281.6150692895
 20
5259.689511272148
 30
0.0
 10
6281.613068669644
 20
5259.673841165349
 30
0.0
 10
6281.609070349746
 20
5259.642523821547
 30
0.0
 10
6281.580578378466
 20
5259.603391894322
 30
0.0
 10
6281.541803931072
 20
5259.576050476638
 30
0.0
 10
6281.494765669673
 20
5259.56540242981
 30
0.0
 10
6281.447696059361
 20
5259.575939870688
 30
0.0
 10
6281.408804737817
 20
5259.603166088146
 30
0.0
 10
6281.380125238275
 20
5259.642218010334
 30
0.0
 10
6281.375938971167
 20
5259.673552424541
 30
0.0
 10
6281.373843704158
 20
5259.689235600666
 30
0.0
  0
SPLINE
  5
19C
330
1F
100
AcDbEntity
  8
0
  6
Continuous
 62
     7
370
    25
100
AcDbSpline
210
0.0
220
0.0
230
1.0
 70
     8
 71
     3
 72
    11
 73
     7
 74
     0
 42
0.000000001
 43
0.00000001
 40
0.0
 40
0.0
 40
0.0
 40
0.0
 40
0.2797365942947967
 40
0.5571632771405292
 40
0.7772193138833127
 40
1.0
 40
1.0
 40
1.0
 40
1.0
 10
6281.373843704158
 20
5259.689235600666
 30
0.0
 10
6281.376365998683
 20
5259.706605355849
 30
0.0
 10
6281.381389760007
 20
5259.741201436301
 30
0.0
 10
6281.414332243081
 20
5259.778762747924
 30
0.0
 10
6281.453147688049
 20
5259.801994398303
 30
0.0
 10
6281.48056206217
 20
5259.804950043514
 30
0.0
 10
6281.494353585685
 20
5259.806436958746
 30
0.0
  0
SPLINE
  5
19D
330
1F
100
AcDbEntity
  8
0
  6
Continuous
 62
     7
370
    25
100
AcDbSpline
210
0.0
220
0.0
230
1.0
 70
     8
 71
     3
 72
    11
 73
     7
 74
     0
 42
0.000000001
 43
0.00000001
 40
0.0
 40
0.0
 40
0.0
 40
0.0
 40
0.2822011187587283
 40
0.5605726914167757
 40
0.7786335066212712
 40
1.0
 40
1.0
 40
1.0
 40
1.0
 10
6281.494353585685
 20
5259.806436958746
 30
0.0
 10
6281.511868614221
 20
5259.804104555679
 30
0.0
 10
6281.546660987584
 20
5259.799471400893
 30
0.0
 10
6281.58567261292
 20
5259.768418275543
 30
0.0
 10
6281.610410914988
 20
5259.730476158992
 30
0.0
 10
6281.613508730022
 20
5259.70323454456
 30
0.0
 10
6281.6150692895
 20
5259.689511272148
 30
0.0
  0
SPLINE
  5
19E
330
1F
100
AcDbEntity
  8
0
  6
Continuous
 62
     7
370
    25
100
AcDbSpline
210
0.0
220
0.0
230
1.0
 70
     8
 71
     3
 72
     9
 73
     5
 74
     0
 42
0.000000001
 43
0.00000001
 40
0.0
 40
0.0
 40
0.0
 40
0.0
 40
0.4527390103310125
 40
1.0
 40
1.0
 40
1.0
 40
1.0
 10
6280.254945778096
 20
5259.464649024442
 30
0.0
 10
6280.260124851863
 20
5259.480531626845
 30
0.0
 10
6280.271564276451
 20
5259.515612770815
 30
0.0
 10
6280.295246711806
 20
5259.544017287018
 30
0.0
 10
6280.308207184816
 20
5259.559561970666
 30
0.0
  0
SPLINE
  5
19F
330
1F
100
AcDbEntity
  8
0
  6
Continuous
 62
     7
370
    25
100
AcDbSpline
210
0.0
220
0.0
230
1.0
 70
     8
 71
     3
 72
     9
 73
     5
 74
     0
 42
0.000000001
 43
0.00000001
 40
0.0
 40
0.0
 40
0.0
 40
0.0
 40
0.5774402045140314
 40
1.0
 40
1.0
 40
1.0
 40
1.0
 10
6282.483164374525
 20
5260.205002042488
 30
0.0
 10
6282.522870313416
 20
5260.186202918081
 30
0.0
 10
6282.591632305706
 20
5260.153646950798
 30
0.0
 10
6282.659914494836
 20
5260.120097250793
 30
0.0
 10
6282.68876780271
 20
5260.105920496419
 30
0.0
  0
SPLINE
  5
1A0
330
1F
100
AcDbEntity
  8
0
  6
Continuous
 62
     7
370
    25
100
AcDbSpline
210
0.0
220
0.0
230
1.0
 70
     8
 71
     3
 72
     9
 73
     5
 74
     0
 42
0.000000001
 43
0.00000001
 40
0.0
 40
0.0
 40
0.0
 40
0.0
 40
0.4935573575767544
 40
1.0
 40
1.0
 40
1.0
 40
1.0
 10
6283.408310417825
 20
5259.395783307985
 30
0.0
 10
6283.300935483261
 20
5259.479758725895
 30
0.0
 10
6283.083382380432
 20
5259.649901905042
 30
0.0
 10
6282.821751342164
 20
5259.738581677503
 30
0.0
 10
6282.689250227803
 20
5259.783492895797
 30
0.0
  0
SPLINE
  5
1A1
330
1F
100
AcDbEntity
  8
0
  6
Continuous
 62
     7
370
    25
100
AcDbSpline
210
0.0
220
0.0
230
1.0
 70
     8
 71
     3
 72
     9
 73
     5
 74
     0
 42
0.000000001
 43
0.00000001
 40
0.0
 40
0.0
 40
0.0
 40
0.0
 40
0.5504207365353305
 40
1.0
 40
1.0
 40
1.0
 40
1.0
 10
6282.689250227803
 20
5259.783492895797
 30
0.0
 10
6282.651790265717
 20
5259.794763766431
 30
0.0
 10
6282.583733305651
 20
5259.815240594221
 30
0.0
 10
6282.514735638063
 20
5259.832268292974
 30
0.0
 10
6282.483715717489
 20
5259.839923593238
 30
0.0
  0
SPLINE
  5
1A2
330
1F
100
AcDbEntity
  8
0
  6
Continuous
 62
     7
370
    25
100
AcDbSpline
210
0.0
220
0.0
230
1.0
 70
     8
 71
     3
 72
     9
 73
     5
 74
     0
 42
0.000000001
 43
0.00000001
 40
0.0
 40
0.0
 40
0.0
 40
0.0
 40
0.5421671773054647
 40
1.0
 40
1.0
 40
1.0
 40
1.0
 10
6282.483715717489
 20
5259.839923593238
 30
0.0
 10
6282.472839980158
 20
5259.841942880216
 30
0.0
 10
6282.452780231457
 20
5259.845667353151
 30
0.0
 10
6282.43264508264
 20
5259.848959096592
 30
0.0
 10
6282.423426550621
 20
5259.850466164783
 30
0.0
  0
SPLINE
  5
1A3
330
1F
100
AcDbEntity
  8
0
  6
Continuous
 62
     7
370
    25
100
AcDbSpline
210
0.0
220
0.0
230
1.0
 70
     8
 71
     3
 72
     9
 73
     5
 74
     0
 42
0.000000001
 43
0.00000001
 40
0.0
 40
0.0
 40
0.0
 40
0.0
 40
0.5523150578637883
 40
1.0
 40
1.0
 40
1.0
 40
1.0
 10
6282.423426550621
 20
5259.850466164783
 30
0.0
 10
6282.400722155693
 20
5259.855185078784
 30
0.0
 10
6282.359614467961
 20
5259.863728959553
 30
0.0
 10
6282.317975483265
 20
5259.869083417265
 30
0.0
 10
6282.299334336812
 20
5259.871480527357
 30
0.0
  0
SPLINE
  5
1A4
330
1F
100
AcDbEntity
  8
0
  6
Continuous
 62
     7
370
    25
100
AcDbSpline
210
0.0
220
0.0
230
1.0
 70
     8
 71
     3
 72
     9
 73
     5
 74
     0
 42
0.000000001
 43
0.00000001
 40
0.0
 40
0.0
 40
0.0
 40
0.0
 40
0.5459514390417318
 40
1.0
 40
1.0
 40
1.0
 40
1.0
 10
6282.299334336812
 20
5259.871480527357
 30
0.0
 10
6282.22152296039
 20
5259.881602376068
 30
0.0
 10
6282.078998605917
 20
5259.900142209444
 30
0.0
 10
6281.935314992763
 20
5259.901969406638
 30
0.0
 10
6281.870075654978
 20
5259.902799042896
 30
0.0
  0
LINE
  5
1A5
330
1F
100
AcDbEntity
  8
0
  6
Continuous
 62
     7
370
    25
100
AcDbLine
 10
6281.870075655
 20
5259.9027990429
 30
0.0
 11
6281.83100807
 21
5259.9027282624
 31
0.0
  0
SPLINE
  5
1A6
330
1F
100
AcDbEntity
  8
0
  6
Continuous
 62
     7
370
    25
100
AcDbSpline
210
0.0
220
0.0
230
1.0
 70
     8
 71
     3
 72
     9
 73
     5
 74
     0
 42
0.000000001
 43
0.00000001
 40
0.0
 40
0.0
 40
0.0
 40
0.0
 40
0.5821588220650049
 40
0.9999999999999999
 40
0.9999999999999999
 40
0.9999999999999999
 40
0.9999999999999999
 10
6281.831008069957
 20
5259.90272826238
 30
0.0
 10
6281.765536355393
 20
5259.902261371913
 30
0.0
 10
6281.6530726907
 20
5259.901459373472
 30
0.0
 10
6281.541031269398
 20
5259.891907622874
 30
0.0
 10
6281.494215749944
 20
5259.887916508153
 30
0.0
  0
SPLINE
  5
1A7
330
1F
100
AcDbEntity
  8
0
  6
Continuous
 62
     7
370
    25
100
AcDbSpline
210
0.0
220
0.0
230
1.0
 70
     8
 71
     3
 72
     9
 73
     5
 74
     0
 42
0.000000001
 43
0.00000001
 40
0.0
 40
0.0
 40
0.0
 40
0.0
 40
0.5764522914845808
 40
1.0
 40
1.0
 40
1.0
 40
1.0
 10
6281.494215749944
 20
5259.887916508153
 30
0.0
 10
6281.354271447792
 20
5259.869796207985
 30
0.0
 10
6281.111503218366
 20
5259.838362036526
 30
0.0
 10
6280.882440512736
 20
5259.75294146009
 30
0.0
 10
6280.785421528662
 20
5259.716761770681
 30
0.0
  0
SPLINE
  5
1A8
330
1F
100
AcDbEntity
  8
0
  6
Continuous
 62
     7
370
    25
100
AcDbSpline
210
0.0
220
0.0
230
1.0
 70
     8
 71
     3
 72
     9
 73
     5
 74
     0
 42
0.000000001
 43
0.00000001
 40
0.0
 40
0.0
 40
0.0
 40
0.0
 40
0.5257945566945634
 40
1.0
 40
1.0
 40
1.0
 40
1.0
 10
6280.785421528662
 20
5259.716761770681
 30
0.0
 10
6280.691276594751
 20
5259.675033698847
 30
0.0
 10
6280.512223896863
 20
5259.595671766887
 30
0.0
 10
6280.33770404284
 20
5259.506794912551
 30
0.0
 10
6280.254945778096
 20
5259.464649024442
 30
0.0
  0
SPLINE
  5
1A9
330
1F
100
AcDbEntity
  8
0
  6
Continuous
 62
     7
370
    25
100
AcDbSpline
210
0.0
220
0.0
230
1.0
 70
     8
 71
     3
 72
     9
 73
     5
 74
     0
 42
0.000000001
 43
0.00000001
 40
0.0
 40
0.0
 40
0.0
 40
0.0
 40
0.5674060510944573
 40
1.0
 40
1.0
 40
1.0
 40
1.0
 10
6282.68876780271
 20
5260.105920496419
 30
0.0
 10
6282.845635154277
 20
5260.023245732614
 30
0.0
 10
6283.122099163193
 20
5259.877539207901
 30
0.0
 10
6283.31866197071
 20
5259.636030460805
 30
0.0
 10
6283.403693851823
 20
5259.531555238203
 30
0.0
  0
SPLINE
  5
1AA
330
1F
100
AcDbEntity
  8
0
  6
Continuous
 62
     7
370
    25
100
AcDbSpline
210
0.0
220
0.0
230
1.0
 70
     8
 71
     3
 72
    10
 73
     6
 74
     0
 42
0.000000001
 43
0.00000001
 40
0.0
 40
0.0
 40
0.0
 40
0.0
 40
0.5532564993991024
 40
0.789514752025496
 40
1.0
 40
1.0
 40
1.0
 40
1.0
 10
6283.403693851823
 20
5259.531555238203
 30
0.0
 10
6283.410651493376
 20
5259.506782156928
 30
0.0
 10
6283.420580270809
 20
5259.471430176174
 30
0.0
 10
6283.421661271977
 20
5259.423721890483
 30
0.0
 10
6283.412586186122
 20
5259.404730968107
 30
0.0
 10
6283.408310417825
 20
5259.395783307985
 30
0.0
  0
SPLINE
  5
1AB
330
1F
100
AcDbEntity
  8
0
  6
Continuous
 62
     7
370
    25
100
AcDbSpline
210
0.0
220
0.0
230
1.0
 70
     8
 71
     3
 72
     9
 73
     5
 74
     0
 42
0.000000001
 43
0.00000001
 40
0.0
 40
0.0
 40
0.0
 40
0.0
 40
0.53406046711449
 40
1.0
 40
1.0
 40
1.0
 40
1.0
 10
6281.493871160591
 20
5260.107779416278
 30
0.0
 10
6281.550942801905
 20
5260.079677975809
 30
0.0
 10
6281.657806434075
 20
5260.027059513668
 30
0.0
 10
6281.775863008892
 20
5260.012373955547
 30
0.0
 10
6281.830870234216
 20
5260.005531373457
 30
0.0
  0
SPLINE
  5
1AC
330
1F
100
AcDbEntity
  8
0
  6
Continuous
 62
     7
370
    25
100
AcDbSpline
210
0.0
220
0.0
230
1.0
 70
     8
 71
     3
 72
     9
 73
     5
 74
     0
 42
0.000000001
 43
0.00000001
 40
0.0
 40
0.0
 40
0.0
 40
0.0
 40
0.5482057883872535
 40
1.0
 40
1.0
 40
1.0
 40
1.0
 10
6282.298989747459
 20
5260.105369153455
 30
0.0
 10
6282.322313378775
 20
5260.123385570499
 30
0.0
 10
6282.364858772877
 20
5260.156249902514
 30
0.0
 10
6282.404820658877
 20
5260.192204057092
 30
0.0
 10
6282.422875207657
 20
5260.208447936014
 30
0.0
  0
LINE
  5
1AD
330
1F
100
AcDbEntity
  8
0
  6
Continuous
 62
     7
370
    25
100
AcDbLine
 10
6280.3082071848
 20
5259.5595619707
 30
0.0
 11
6280.3060711965
 21
5259.5582879214
 31
0.0
  0
SPLINE
  5
1AE
330
1F
100
AcDbEntity
  8
0
  6
Continuous
 62
     7
370
    25
100
AcDbSpline
210
0.0
220
0.0
230
1.0
 70
     8
 71
     3
 72
     9
 73
     5
 74
     0
 42
0.000000001
 43
0.00000001
 40
0.0
 40
0.0
 40
0.0
 40
0.0
 40
0.5795321123278978
 40
1.0
 40
1.0
 40
1.0
 40
1.0
 10
6280.306071196491
 20
5259.558287921384
 30
0.0
 10
6280.395515980994
 20
5259.637884408645
 30
0.0
 10
6280.549855632928
 20
5259.775230529018
 30
0.0
 10
6280.715401359482
 20
5259.898772162384
 30
0.0
 10
6280.785008021438
 20
5259.950717452005
 30
0.0
  0
SPLINE
  5
1AF
330
1F
100
AcDbEntity
  8
0
  6
Continuous
 62
     7
370
    25
100
AcDbSpline
210
0.0
220
0.0
230
1.0
 70
     8
 71
     3
 72
     9
 73
     5
 74
     0
 42
0.000000001
 43
0.00000001
 40
0.0
 40
0.0
 40
0.0
 40
0.0
 40
0.5614245966532105
 40
1.0
 40
1.0
 40
1.0
 40
1.0
 10
6280.785008021438
 20
5259.950717452005
 30
0.0
 10
6280.876590583002
 20
5260.01403865879
 30
0.0
 10
6281.039715893347
 20
5260.126825321794
 30
0.0
 10
6281.215030690394
 20
5260.219413817887
 30
0.0
 10
6281.291919448221
 20
5260.260020854906
 30
0.0
  0
SPLINE
  5
1B0
330
1F
100
AcDbEntity
  8
0
  6
Continuous
 62
     7
370
    25
100
AcDbSpline
210
0.0
220
0.0
230
1.0
 70
     8
 71
     3
 72
     9
 73
     5
 74
     0
 42
0.000000001
 43
0.00000001
 40
0.0
 40
0.0
 40
0.0
 40
0.0
 40
0.5248772998318167
 40
1.0
 40
1.0
 40
1.0
 40
1.0
 10
6281.291919448221
 20
5260.260020854906
 30
0.0
 10
6281.324149925872
 20
5260.229234879798
 30
0.0
 10
6281.385555663292
 20
5260.170581218996
 30
0.0
 10
6281.458983790515
 20
5260.128007267209
 30
0.0
 10
6281.493871160591
 20
5260.107779416278
 30
0.0
  0
LINE
  5
1B1
330
1F
100
AcDbEntity
  8
0
  6
Continuous
 62
     7
370
    25
100
AcDbLine
 10
6282.4228752077
 20
5260.208447936
 30
0.0
 11
6282.4403766215
 21
5260.2226412921
 31
0.0
  0
LINE
  5
1B2
330
1F
100
AcDbEntity
  8
0
  6
Continuous
 62
     7
370
    25
100
AcDbLine
 10
6281.8308702342
 20
5260.0055313735
 30
0.0
 11
6281.8735206172
 21
5260.0020146994
 31
0.0
  0
SPLINE
  5
1B3
330
1F
100
AcDbEntity
  8
0
  6
Continuous
 62
     7
370
    25
100
AcDbSpline
210
0.0
220
0.0
230
1.0
 70
     8
 71
     3
 72
     9
 73
     5
 74
     0
 42
0.000000001
 43
0.00000001
 40
0.0
 40
0.0
 40
0.0
 40
0.0
 40
0.6467630186259806
 40
1.0
 40
1.0
 40
1.0
 40
1.0
 10
6281.873520617181
 20
5260.002014699415
 30
0.0
 10
6281.970998023686
 20
5260.004685799598
 30
0.0
 10
6282.12171382483
 20
5260.008815751536
 30
0.0
 10
6282.252715212665
 20
5260.080165709635
 30
0.0
 10
6282.298989747459
 20
5260.105369153455
 30
0.0
  0
SPLINE
  5
1B4
330
1F
100
AcDbEntity
  8
0
  6
Continuous
 62
     7
370
    25
100
AcDbSpline
210
0.0
220
0.0
230
1.0
 70
     8
 71
     3
 72
     9
 73
     5
 74
     0
 42
0.000000001
 43
0.00000001
 40
0.0
 40
0.0
 40
0.0
 40
0.0
 40
0.5982459889250389
 40
1.0
 40
1.0
 40
1.0
 40
1.0
 10
6282.440376621479
 20
5260.222641292051
 30
0.0
 10
6282.449408914526
 20
5260.220273404255
 30
0.0
 10
6282.464506872917
 20
5260.216315353821
 30
0.0
 10
6282.477816984006
 20
5260.208244528809
 30
0.0
 10
6282.483164374525
 20
5260.205002042488
 30
0.0
  0
SPLINE
  5
1B5
330
1F
100
AcDbEntity
  8
0
  6
Continuous
 62
     7
370
    25
100
AcDbSpline
210
0.0
220
0.0
230
1.0
 70
     8
 71
     3
 72
     9
 73
     5
 74
     0
 42
0.000000001
 43
0.00000001
 40
0.0
 40
0.0
 40
0.0
 40
0.0
 40
0.5488164825867569
 40
1.0
 40
1.0
 40
1.0
 40
1.0
 10
6280.173366111511
 20
5261.314631911949
 30
0.0
 10
6280.292093097062
 20
5261.288236125768
 30
0.0
 10
6280.508425859137
 20
5261.240140292246
 30
0.0
 10
6280.697924646603
 20
5261.125957492075
 30
0.0
 10
6280.783423376078
 20
5261.074440094665
 30
0.0
  0
SPLINE
  5
1B6
330
1F
100
AcDbEntity
  8
0
  6
Continuous
 62
     7
370
    25
100
AcDbSpline
210
0.0
220
0.0
230
1.0
 70
     8
 71
     3
 72
     9
 73
     5
 74
     0
 42
0.000000001
 43
0.00000001
 40
0.0
 40
0.0
 40
0.0
 40
0.0
 40
0.5440807078638255
 40
1.0
 40
1.0
 40
1.0
 40
1.0
 10
6280.783423376078
 20
5261.074440094665
 30
0.0
 10
6280.867841200075
 20
5261.013038670802
 30
0.0
 10
6281.02299800453
 20
5260.900185149303
 30
0.0
 10
6281.153614089846
 20
5260.759796367076
 30
0.0
 10
6281.213164483005
 20
5260.695790412859
 30
0.0
  0
SPLINE
  5
1B7
330
1F
100
AcDbEntity
  8
0
  6
Continuous
 62
     7
370
    25
100
AcDbSpline
210
0.0
220
0.0
230
1.0
 70
     8
 71
     3
 72
     9
 73
     5
 74
     0
 42
0.000000001
 43
0.00000001
 40
0.0
 40
0.0
 40
0.0
 40
0.0
 40
0.5668917377918752
 40
1.0
 40
1.0
 40
1.0
 40
1.0
 10
6281.213164483005
 20
5260.695790412859
 30
0.0
 10
6281.190662112915
 20
5260.686576831497
 30
0.0
 10
6281.150967814001
 20
5260.67032402563
 30
0.0
 10
6281.112730367067
 20
5260.650903761435
 30
0.0
 10
6281.096169412875
 20
5260.642492684558
 30
0.0
  0
SPLINE
  5
1B8
330
1F
100
AcDbEntity
  8
0
  6
Continuous
 62
     7
370
    25
100
AcDbSpline
210
0.0
220
0.0
230
1.0
 70
     8
 71
     3
 72
     9
 73
     5
 74
     0
 42
0.000000001
 43
0.00000001
 40
0.0
 40
0.0
 40
0.0
 40
0.0
 40
0.5696708137904118
 40
0.9999999999999999
 40
0.9999999999999999
 40
0.9999999999999999
 40
0.9999999999999999
 10
6281.096169412875
 20
5260.642492684558
 30
0.0
 10
6281.039284428015
 20
5260.698991852671
 30
0.0
 10
6280.939428540223
 20
5260.798170477845
 30
0.0
 10
6280.830503677306
 20
5260.887245788425
 30
0.0
 10
6280.783630129689
 20
5260.925577494339
 30
0.0
  0
SPLINE
  5
1B9
330
1F
100
AcDbEntity
  8
0
  6
Continuous
 62
     7
370
    25
100
AcDbSpline
210
0.0
220
0.0
230
1.0
 70
     8
 71
     3
 72
     9
 73
     5
 74
     0
 42
0.000000001
 43
0.00000001
 40
0.0
 40
0.0
 40
0.0
 40
0.0
 40
0.5519690003391876
 40
1.0
 40
1.0
 40
1.0
 40
1.0
 10
6280.783630129689
 20
5260.925577494339
 30
0.0
 10
6280.694093440558
 20
5260.989356800558
 30
0.0
 10
6280.531880183878
 20
5261.104905511048
 30
0.0
 10
6280.348149510565
 20
5261.181316067768
 30
0.0
 10
6280.265832473332
 20
5261.215550365881
 30
0.0
  0
SPLINE
  5
1BA
330
1F
100
AcDbEntity
  8
0
  6
Continuous
 62
     7
370
    25
100
AcDbSpline
210
0.0
220
0.0
230
1.0
 70
     8
 71
     3
 72
     9
 73
     5
 74
     0
 42
0.000000001
 43
0.00000001
 40
0.0
 40
0.0
 40
0.0
 40
0.0
 40
0.5545902891013921
 40
1.0
 40
1.0
 40
1.0
 40
1.0
 10
6280.265832473332
 20
5261.215550365881
 30
0.0
 10
6280.281314413153
 20
5261.012496447728
 30
0.0
 10
6280.309230408302
 20
5260.64636324608
 30
0.0
 10
6280.469216120027
 20
5260.316888363004
 30
0.0
 10
6280.540475309635
 20
5260.170137050584
 30
0.0
  0
LINE
  5
1BB
330
1F
100
AcDbEntity
  8
0
  6
Continuous
 62
     7
370
    25
100
AcDbLine
 10
6280.5404753096
 20
5260.1701370506
 30
0.0
 11
6280.4976181731
 21
5260.1098134248
 31
0.0
  0
SPLINE
  5
1BC
330
1F
100
AcDbEntity
  8
0
  6
Continuous
 62
     7
370
    25
100
AcDbSpline
210
0.0
220
0.0
230
1.0
 70
     8
 71
     3
 72
     9
 73
     5
 74
     0
 42
0.000000001
 43
0.00000001
 40
0.0
 40
0.0
 40
0.0
 40
0.0
 40
0.5927560941115194
 40
1.0
 40
1.0
 40
1.0
 40
1.0
 10
6280.497618173057
 20
5260.109813424781
 30
0.0
 10
6280.384411394828
 20
5260.336057498298
 30
0.0
 10
6280.193427650665
 20
5260.71773906305
 30
0.0
 10
6280.179171743022
 20
5261.141896415163
 30
0.0
 10
6280.173366111511
 20
5261.314631911949
 30
0.0
  0
SPLINE
  5
1BD
330
1F
100
AcDbEntity
  8
0
  6
Continuous
 62
     7
370
    25
100
AcDbSpline
210
0.0
220
0.0
230
1.0
 70
     8
 71
     3
 72
     9
 73
     5
 74
     0
 42
0.000000001
 43
0.00000001
 40
0.0
 40
0.0
 40
0.0
 40
0.0
 40
0.5747363006387073
 40
1.0
 40
1.0
 40
1.0
 40
1.0
 10
6282.421704535181
 20
5260.988519999221
 30
0.0
 10
6282.433392905587
 20
5260.995040351194
 30
0.0
 10
6282.453729832961
 20
5261.006385296631
 30
0.0
 10
6282.473463748418
 20
5261.01874658296
 30
0.0
 10
6282.481855866307
 20
5261.024003389314
 30
0.0
  0
SPLINE
  5
1BE
330
1F
100
AcDbEntity
  8
0
  6
Continuous
 62
     7
370
    25
100
AcDbSpline
210
0.0
220
0.0
230
1.0
 70
     8
 71
     3
 72
     9
 73
     5
 74
     0
 42
0.000000001
 43
0.00000001
 40
0.0
 40
0.0
 40
0.0
 40
0.0
 40
0.5719366621051759
 40
1.0
 40
1.0
 40
1.0
 40
1.0
 10
6282.481855866307
 20
5261.024003389314
 30
0.0
 10
6282.520304049716
 20
5261.044459133505
 30
0.0
 10
6282.587528597391
 20
5261.080224884413
 30
0.0
 10
6282.657311934709
 20
5261.110670627263
 30
0.0
 10
6282.68718362301
 20
5261.123703333572
 30
0.0
  0
SPLINE
  5
1BF
330
1F
100
AcDbEntity
  8
0
  6
Continuous
 62
     7
370
    25
100
AcDbSpline
210
0.0
220
0.0
230
1.0
 70
     8
 71
     3
 72
     9
 73
     5
 74
     0
 42
0.000000001
 43
0.00000001
 40
0.0
 40
0.0
 40
0.0
 40
0.0
 40
0.5717566098125774
 40
1.0
 40
1.0
 40
1.0
 40
1.0
 10
6282.68718362301
 20
5261.123703333572
 30
0.0
 10
6282.742118834968
 20
5261.144979662252
 30
0.0
 10
6282.838200298682
 20
5261.182191875131
 30
0.0
 10
6282.938410666675
 20
5261.205957685329
 30
0.0
 10
6282.981325094396
 20
5261.216135236457
 30
0.0
  0
SPLINE
  5
1C0
330
1F
100
AcDbEntity
  8
0
  6
Continuous
 62
     7
370
    25
100
AcDbSpline
210
0.0
220
0.0
230
1.0
 70
     8
 71
     3
 72
     9
 73
     5
 74
     0
 42
0.000000001
 43
0.00000001
 40
0.0
 40
0.0
 40
0.0
 40
0.0
 40
0.5681714692471288
 40
1.0
 40
1.0
 40
1.0
 40
1.0
 10
6282.981325094396
 20
5261.216135236457
 30
0.0
 10
6282.923301508095
 20
5261.185513113974
 30
0.0
 10
6282.821178136117
 20
5261.131617196736
 30
0.0
 10
6282.727643475813
 20
5261.063991018093
 30
0.0
 10
6282.687252540881
 20
5261.034788104728
 30
0.0
  0
SPLINE
  5
1C1
330
1F
100
AcDbEntity
  8
0
  6
Continuous
 62
     7
370
    25
100
AcDbSpline
210
0.0
220
0.0
230
1.0
 70
     8
 71
     3
 72
     9
 73
     5
 74
     0
 42
0.000000001
 43
0.00000001
 40
0.0
 40
0.0
 40
0.0
 40
0.0
 40
0.5647699327777898
 40
1.0
 40
1.0
 40
1.0
 40
1.0
 10
6282.687252540881
 20
5261.034788104728
 30
0.0
 10
6282.647043384418
 20
5261.005318149705
 30
0.0
 10
6282.575847745044
 20
5260.953137689462
 30
0.0
 10
6282.510502733629
 20
5260.893825173616
 30
0.0
 10
6282.482062619919
 20
5260.868010583356
 30
0.0
  0
SPLINE
  5
1C2
330
1F
100
AcDbEntity
  8
0
  6
Continuous
 62
     7
370
    25
100
AcDbSpline
210
0.0
220
0.0
230
1.0
 70
     8
 71
     3
 72
     9
 73
     5
 74
     0
 42
0.000000001
 43
0.00000001
 40
0.0
 40
0.0
 40
0.0
 40
0.0
 40
0.5596994744849454
 40
0.9999999999999999
 40
0.9999999999999999
 40
0.9999999999999999
 40
0.9999999999999999
 10
6282.482062619919
 20
5260.868010583356
 30
0.0
 10
6282.470798870531
 20
5260.85677123247
 30
0.0
 10
6282.450674232399
 20
5260.836690186483
 30
0.0
 10
6282.430751983376
 20
5260.816408415651
 30
0.0
 10
6282.421980206663
 20
5260.807478341297
 30
0.0
  0
SPLINE
  5
1C3
330
1F
100
AcDbEntity
  8
0
  6
Continuous
 62
     7
370
    25
100
AcDbSpline
210
0.0
220
0.0
230
1.0
 70
     8
 71
     3
 72
     9
 73
     5
 74
     0
 42
0.000000001
 43
0.00000001
 40
0.0
 40
0.0
 40
0.0
 40
0.0
 40
0.5599277432437464
 40
0.9999999999999999
 40
0.9999999999999999
 40
0.9999999999999999
 40
0.9999999999999999
 10
6282.421980206663
 20
5260.807478341297
 30
0.0
 10
6282.407999129502
 20
5260.792312677974
 30
0.0
 10
6282.383029698482
 20
5260.765227641547
 30
0.0
 10
6282.358307422394
 20
5260.737916906053
 30
0.0
 10
6282.347427834565
 20
5260.725898209051
 30
0.0
  0
SPLINE
  5
1C4
330
1F
100
AcDbEntity
  8
0
  6
Continuous
 62
     7
370
    25
100
AcDbSpline
210
0.0
220
0.0
230
1.0
 70
     8
 71
     3
 72
     9
 73
     5
 74
     0
 42
0.000000001
 43
0.00000001
 40
0.0
 40
0.0
 40
0.0
 40
0.0
 40
0.5376433084465829
 40
1.0
 40
1.0
 40
1.0
 40
1.0
 10
6282.347427834565
 20
5260.725898209051
 30
0.0
 10
6282.338654726515
 20
5260.729239722268
 30
0.0
 10
6282.322337015659
 20
5260.735454833968
 30
0.0
 10
6282.305758843824
 20
5260.740936102298
 30
0.0
 10
6282.298093815142
 20
5260.743470403389
 30
0.0
  0
SPLINE
  5
1C5
330
1F
100
AcDbEntity
  8
0
  6
Continuous
 62
     7
370
    25
100
AcDbSpline
210
0.0
220
0.0
230
1.0
 70
     8
 71
     3
 72
     9
 73
     5
 74
     0
 42
0.000000001
 43
0.00000001
 40
0.0
 40
0.0
 40
0.0
 40
0.0
 40
0.5544506399315009
 40
1.0
 40
1.0
 40
1.0
 40
1.0
 10
6282.298093815142
 20
5260.743470403389
 30
0.0
 10
6282.270099075233
 20
5260.752239435799
 30
0.0
 10
6282.219608124564
 20
5260.768055149189
 30
0.0
 10
6282.168182169813
 20
5260.780480732981
 30
0.0
 10
6282.145269368583
 20
5260.786016943887
 30
0.0
  0
SPLINE
  5
1C6
330
1F
100
AcDbEntity
  8
0
  6
Continuous
 62
     7
370
    25
100
AcDbSpline
210
0.0
220
0.0
230
1.0
 70
     8
 71
     3
 72
     9
 73
     5
 74
     0
 42
0.000000001
 43
0.00000001
 40
0.0
 40
0.0
 40
0.0
 40
0.0
 40
0.564204527170956
 40
1.0
 40
1.0
 40
1.0
 40
1.0
 10
6282.145269368583
 20
5260.786016943887
 30
0.0
 10
6282.173641578762
 20
5260.809109163188
 30
0.0
 10
6282.223928680004
 20
5260.850037972136
 30
0.0
 10
6282.275391067966
 20
5260.889476892531
 30
0.0
 10
6282.29781814366
 20
5260.906664195493
 30
0.0
  0
SPLINE
  5
1C7
330
1F
100
AcDbEntity
  8
0
  6
Continuous
 62
     7
370
    25
100
AcDbSpline
210
0.0
220
0.0
230
1.0
 70
     8
 71
     3
 72
     9
 73
     5
 74
     0
 42
0.000000001
 43
0.00000001
 40
0.0
 40
0.0
 40
0.0
 40
0.0
 40
0.5634263497419904
 40
1.0
 40
1.0
 40
1.0
 40
1.0
 10
6282.29781814366
 20
5260.906664195493
 30
0.0
 10
6282.320709123671
 20
5260.922609147162
 30
0.0
 10
6282.361337290994
 20
5260.950909122263
 30
0.0
 10
6282.403358975143
 20
5260.977090082043
 30
0.0
 10
6282.421704535181
 20
5260.988519999221
 30
0.0
  0
SPLINE
  5
1C8
330
1F
100
AcDbEntity
  8
0
  6
Continuous
 62
     7
370
    25
100
AcDbSpline
210
0.0
220
0.0
230
1.0
 70
     8
 71
     3
 72
     9
 73
     5
 74
     0
 42
0.000000001
 43
0.00000001
 40
0.0
 40
0.0
 40
0.0
 40
0.0
 40
0.623501983286297
 40
0.9999999999999999
 40
0.9999999999999999
 40
0.9999999999999999
 40
0.9999999999999999
 10
6282.995726135367
 20
5258.621083113388
 30
0.0
 10
6283.05338056823
 20
5258.555908702564
 30
0.0
 10
6283.145849292319
 20
5258.451379105913
 30
0.0
 10
6283.209781135643
 20
5258.327716536398
 30
0.0
 10
6283.233851347858
 20
5258.281157824234
 30
0.0
  0
SPLINE
  5
1C9
330
1F
100
AcDbEntity
  8
0
  6
Continuous
 62
     7
370
    25
100
AcDbSpline
210
0.0
220
0.0
230
1.0
 70
     8
 71
     3
 72
     9
 73
     5
 74
     0
 42
0.000000001
 43
0.00000001
 40
0.0
 40
0.0
 40
0.0
 40
0.0
 40
0.5797540293673464
 40
1.0
 40
1.0
 40
1.0
 40
1.0
 10
6283.233851347858
 20
5258.281157824234
 30
0.0
 10
6283.1320092913
 20
5258.243871581976
 30
0.0
 10
6282.956345041637
 20
5258.179557682687
 30
0.0
 10
6282.769980408213
 20
5258.183028108517
 30
0.0
 10
6282.691661421949
 20
5258.184486540988
 30
0.0
  0
SPLINE
  5
1CA
330
1F
100
AcDbEntity
  8
0
  6
Continuous
 62
     7
370
    25
100
AcDbSpline
210
0.0
220
0.0
230
1.0
 70
     8
 71
     3
 72
     9
 73
     5
 74
     0
 42
0.000000001
 43
0.00000001
 40
0.0
 40
0.0
 40
0.0
 40
0.0
 40
0.5717970651014628
 40
1.0
 40
1.0
 40
1.0
 40
1.0
 10
6282.691661421949
 20
5258.184486540988
 30
0.0
 10
6282.652310876502
 20
5258.1876372728
 30
0.0
 10
6282.583491800909
 20
5258.193147500125
 30
0.0
 10
6282.515367700542
 20
5258.204282896015
 30
0.0
 10
6282.486196760828
 20
5258.209051105217
 30
0.0
  0
SPLINE
  5
1CB
330
1F
100
AcDbEntity
  8
0
  6
Continuous
 62
     7
370
    25
100
AcDbSpline
210
0.0
220
0.0
230
1.0
 70
     8
 71
     3
 72
     9
 73
     5
 74
     0
 42
0.000000001
 43
0.00000001
 40
0.0
 40
0.0
 40
0.0
 40
0.0
 40
0.5375978295586413
 40
1.0
 40
1.0
 40
1.0
 40
1.0
 10
6282.486196760828
 20
5258.209051105217
 30
0.0
 10
6282.477295147749
 20
5258.210322146915
 30
0.0
 10
6282.460737020855
 20
5258.212686445336
 30
0.0
 10
6282.444176002763
 20
5258.215030404034
 30
0.0
 10
6282.436518152052
 20
5258.216114255622
 30
0.0
  0
SPLINE
  5
1CC
330
1F
100
AcDbEntity
  8
0
  6
Continuous
 62
     7
370
    25
100
AcDbSpline
210
0.0
220
0.0
230
1.0
 70
     8
 71
     3
 72
     9
 73
     5
 74
     0
 42
0.000000001
 43
0.00000001
 40
0.0
 40
0.0
 40
0.0
 40
0.0
 40
0.5621967568591292
 40
1.0
 40
1.0
 40
1.0
 40
1.0
 10
6282.436518152052
 20
5258.216114255622
 30
0.0
 10
6282.444161774484
 20
5258.260325929822
 30
0.0
 10
6282.457757766168
 20
5258.338966856971
 30
0.0
 10
6282.477297578337
 20
5258.416335520762
 30
0.0
 10
6282.485852171475
 20
5258.450207772687
 30
0.0
  0
SPLINE
  5
1CD
330
1F
100
AcDbEntity
  8
0
  6
Continuous
 62
     7
370
    25
100
AcDbSpline
210
0.0
220
0.0
230
1.0
 70
     8
 71
     3
 72
     9
 73
     5
 74
     0
 42
0.000000001
 43
0.00000001
 40
0.0
 40
0.0
 40
0.0
 40
0.0
 40
0.5474496949767502
 40
1.0
 40
1.0
 40
1.0
 40
1.0
 10
6282.485852171475
 20
5258.450207772687
 30
0.0
 10
6282.493751620153
 20
5258.474962410973
 30
0.0
 10
6282.508181162722
 20
5258.520180516877
 30
0.0
 10
6282.524257976694
 20
5258.56483842871
 30
0.0
 10
6282.53153354376
 20
5258.585048380331
 30
0.0
  0
SPLINE
  5
1CE
330
1F
100
AcDbEntity
  8
0
  6
Continuous
 62
     7
370
    25
100
AcDbSpline
210
0.0
220
0.0
230
1.0
 70
     8
 71
     3
 72
     9
 73
     5
 74
     0
 42
0.000000001
 43
0.00000001
 40
0.0
 40
0.0
 40
0.0
 40
0.0
 40
0.5670548879900046
 40
1.0
 40
1.0
 40
1.0
 40
1.0
 10
6282.53153354376
 20
5258.585048380331
 30
0.0
 10
6282.561692281798
 20
5258.583610792168
 30
0.0
 10
6282.614877147456
 20
5258.581075608726
 30
0.0
 10
6282.668029877692
 20
5258.583993646428
 30
0.0
 10
6282.691042092437
 20
5258.585256996587
 30
0.0
  0
SPLINE
  5
1CF
330
1F
100
AcDbEntity
  8
0
  6
Continuous
 62
     7
370
    25
100
AcDbSpline
210
0.0
220
0.0
230
1.0
 70
     8
 71
     3
 72
     9
 73
     5
 74
     0
 42
0.000000001
 43
0.00000001
 40
0.0
 40
0.0
 40
0.0
 40
0.0
 40
0.5363754634499304
 40
0.9999999999999999
 40
0.9999999999999999
 40
0.9999999999999999
 40
0.9999999999999999
 10
6282.691042092437
 20
5258.585256996587
 30
0.0
 10
6282.745785977543
 20
5258.589415537372
 30
0.0
 10
6282.847848597547
 20
5258.597168578043
 30
0.0
 10
6282.948883756584
 20
5258.613507833601
 30
0.0
 10
6282.995726135367
 20
5258.621083113388
 30
0.0
  0
SPLINE
  5
1D0
330
1F
100
AcDbEntity
  8
0
  6
Continuous
 62
     7
370
    25
100
AcDbSpline
210
0.0
220
0.0
230
1.0
 70
     8
 71
     3
 72
    11
 73
     7
 74
     0
 42
0.000000001
 43
0.00000001
 40
0.0
 40
0.0
 40
0.0
 40
0.0
 40
0.2856069481874091
 40
0.559656425567479
 40
0.7759450444050576
 40
1.0
 40
1.0
 40
1.0
 40
1.0
 10
6284.485384975368
 20
5260.534179869131
 30
0.0
 10
6284.424453363313
 20
5260.541809878307
 30
0.0
 10
6284.305055819158
 20
5260.556761138035
 30
0.0
 10
6284.172141655485
 20
5260.664505271386
 30
0.0
 10
6284.091971913273
 20
5260.796543494048
 30
0.0
 10
6284.082325521483
 20
5260.890169154553
 30
0.0
 10
6284.077417258913
 20
5260.937807622388
 30
0.0
  0
SPLINE
  5
1D1
330
1F
100
AcDbEntity
  8
0
  6
Continuous
 62
     7
370
    25
100
AcDbSpline
210
0.0
220
0.0
230
1.0
 70
     8
 71
     3
 72
    11
 73
     7
 74
     0
 42
0.000000001
 43
0.00000001
 40
0.0
 40
0.0
 40
0.0
 40
0.0
 40
0.2844811702179012
 40
0.5585185979502922
 40
0.7750980840149297
 40
1.0
 40
1.0
 40
1.0
 40
1.0
 10
6284.077417258913
 20
5260.937807622388
 30
0.0
 10
6284.085083499148
 20
5260.998979986775
 30
0.0
 10
6284.100134540116
 20
5261.119078983712
 30
0.0
 10
6284.20817039619
 20
5261.253238154866
 30
0.0
 10
6284.34127460605
 20
5261.334657219882
 30
0.0
 10
6284.435926406213
 20
5261.344441672804
 30
0.0
 10
6284.484144453699
 20
5261.349426123336
 30
0.0
  0
SPLINE
  5
1D2
330
1F
100
AcDbEntity
  8
0
  6
Continuous
 62
     7
370
    25
100
AcDbSpline
210
0.0
220
0.0
230
1.0
 70
     8
 71
     3
 72
    11
 73
     7
 74
     0
 42
0.000000001
 43
0.00000001
 40
0.0
 40
0.0
 40
0.0
 40
0.0
 40
0.2808120159059154
 40
0.5560867933363002
 40
0.7746237894240393
 40
0.9999999999999999
 40
0.9999999999999999
 40
0.9999999999999999
 40
0.9999999999999999
 10
6284.892733362311
 20
5260.939014616445
 30
0.0
 10
6284.88472180888
 20
5260.879259371508
 30
0.0
 10
6284.868856679168
 20
5260.760927175378
 30
0.0
 10
6284.759867839731
 20
5260.629857672119
 30
0.0
 10
6284.627430230555
 20
5260.54915837727
 30
0.0
 10
6284.533217229277
 20
5260.539223725073
 30
0.0
 10
6284.485384975368
 20
5260.534179869131
 30
0.0
  0
LINE
  5
1D3
330
1F
100
AcDbEntity
  8
0
  6
Continuous
 62
     7
370
    25
100
AcDbLine
 10
6284.6943644479
 20
5260.7366121439
 30
0.0
 11
6284.6232579693
 21
5260.8535415558
 31
0.0
  0
LINE
  5
1D4
330
1F
100
AcDbEntity
  8
0
  6
Continuous
 62
     7
370
    25
100
AcDbLine
 10
6284.6270475209
 20
5260.7365450887
 30
0.0
 11
6284.6943644479
 21
5260.7366121439
 31
0.0
  0
LINE
  5
1D5
330
1F
100
AcDbEntity
  8
0
  6
Continuous
 62
     7
370
    25
100
AcDbLine
 10
6284.5701343983
 20
5260.8249462275
 30
0.0
 11
6284.6270475209
 21
5260.7365450887
 31
0.0
  0
SPLINE
  5
1D6
330
1F
100
AcDbEntity
  8
0
  6
Continuous
 62
     7
370
    25
100
AcDbSpline
210
0.0
220
0.0
230
1.0
 70
     8
 71
     3
 72
     9
 73
     5
 74
     0
 42
0.000000001
 43
0.00000001
 40
0.0
 40
0.0
 40
0.0
 40
0.0
 40
0.4806542730163696
 40
1.0
 40
1.0
 40
1.0
 40
1.0
 10
6284.527484481031
 20
5260.881686124042
 30
0.0
 10
6284.534782509605
 20
5260.872945648138
 30
0.0
 10
6284.549966039606
 20
5260.854761110112
 30
0.0
 10
6284.563240410522
 20
5260.835137608972
 30
0.0
 10
6284.570134398336
 20
5260.824946227506
 30
0.0
  0
LINE
  5
1D7
330
1F
100
AcDbEntity
  8
0
  6
Continuous
 62
     7
370
    25
100
AcDbLine
 10
6284.4991657555
 20
5260.9099014728
 30
0.0
 11
6284.527484481
 21
5260.881686124
 31
0.0
  0
LINE
  5
1D8
330
1F
100
AcDbEntity
  8
0
  6
Continuous
 62
     7
370
    25
100
AcDbLine
 10
6284.4920690775
 20
5260.9135522573
 30
0.0
 11
6284.4991657555
 21
5260.9099014728
 31
0.0
  0
LINE
  5
1D9
330
1F
100
AcDbEntity
  8
0
  6
Continuous
 62
     7
370
    25
100
AcDbLine
 10
6284.4742230743
 20
5260.9206861882
 30
0.0
 11
6284.4920690775
 21
5260.9135522573
 31
0.0
  0
LINE
  5
1DA
330
1F
100
AcDbEntity
  8
0
  6
Continuous
 62
     7
370
    25
100
AcDbLine
 10
6284.4459043488
 20
5260.9206154077
 30
0.0
 11
6284.4742230743
 21
5260.9206861882
 31
0.0
  0
LINE
  5
1DB
330
1F
100
AcDbEntity
  8
0
  6
Continuous
 62
     7
370
    25
100
AcDbLine
 10
6284.382032384
 20
5260.9205483524
 30
0.0
 11
6284.4459043488
 21
5260.9206154077
 31
0.0
  0
LINE
  5
1DC
330
1F
100
AcDbEntity
  8
0
  6
Continuous
 62
     7
370
    25
100
AcDbLine
 10
6284.3823080555
 20
5260.7361986367
 30
0.0
 11
6284.382032384
 21
5260.9205483524
 31
0.0
  0
LINE
  5
1DD
330
1F
100
AcDbEntity
  8
0
  6
Continuous
 62
     7
370
    25
100
AcDbLine
 10
6284.3258084401
 20
5260.7361315815
 30
0.0
 11
6284.3823080555
 21
5260.7361986367
 31
0.0
  0
LINE
  5
1DE
330
1F
100
AcDbEntity
  8
0
  6
Continuous
 62
     7
370
    25
100
AcDbLine
 10
6284.3251192614
 20
5261.1579834549
 30
0.0
 11
6284.3258084401
 21
5260.7361315815
 31
0.0
  0
LINE
  5
1DF
330
1F
100
AcDbEntity
  8
0
  6
Continuous
 62
     7
370
    25
100
AcDbLine
 10
6284.491793406
 20
5261.1582591264
 30
0.0
 11
6284.3251192614
 21
5261.1579834549
 31
0.0
  0
LINE
  5
1E0
330
1F
100
AcDbEntity
  8
0
  6
Continuous
 62
     7
370
    25
100
AcDbLine
 10
6284.5094317242
 20
5261.1582591264
 30
0.0
 11
6284.491793406
 21
5261.1582591264
 31
0.0
  0
SPLINE
  5
1E1
330
1F
100
AcDbEntity
  8
0
  6
Continuous
 62
     7
370
    25
100
AcDbSpline
210
0.0
220
0.0
230
1.0
 70
     8
 71
     3
 72
     9
 73
     5
 74
     0
 42
0.000000001
 43
0.00000001
 40
0.0
 40
0.0
 40
0.0
 40
0.0
 40
0.4762361968045859
 40
1.0
 40
1.0
 40
1.0
 40
1.0
 10
6284.594663572306
 20
5261.14427066131
 30
0.0
 10
6284.581449380078
 20
5261.148365728051
 30
0.0
 10
6284.553702240494
 20
5261.156964542605
 30
0.0
 10
6284.524648842483
 20
5261.157814138699
 30
0.0
 10
6284.509431724245
 20
5261.15825912638
 30
0.0
  0
SPLINE
  5
1E2
330
1F
100
AcDbEntity
  8
0
  6
Continuous
 62
     7
370
    25
100
AcDbSpline
210
0.0
220
0.0
230
1.0
 70
     8
 71
     3
 72
     9
 73
     5
 74
     0
 42
0.000000001
 43
0.00000001
 40
0.0
 40
0.0
 40
0.0
 40
0.0
 40
0.5642049319245549
 40
1.0
 40
1.0
 40
1.0
 40
1.0
 10
6284.644411098951
 20
5261.10520354195
 30
0.0
 10
6284.636619823968
 20
5261.114625433476
 30
0.0
 10
6284.62281052429
 20
5261.1313248471
 30
0.0
 10
6284.603206785143
 20
5261.140341324798
 30
0.0
 10
6284.594663572306
 20
5261.14427066131
 30
0.0
  0
SPLINE
  5
1E3
330
1F
100
AcDbEntity
  8
0
  6
Continuous
 62
     7
370
    25
100
AcDbSpline
210
0.0
220
0.0
230
1.0
 70
     8
 71
     3
 72
     9
 73
     5
 74
     0
 42
0.000000001
 43
0.00000001
 40
0.0
 40
0.0
 40
0.0
 40
0.0
 40
0.5646846789647927
 40
1.0
 40
1.0
 40
1.0
 40
1.0
 10
6284.662049417192
 20
5261.041642638877
 30
0.0
 10
6284.660901715062
 20
5261.054248073196
 30
0.0
 10
6284.658869249559
 20
5261.076571034641
 30
0.0
 10
6284.648796096715
 20
5261.096519617987
 30
0.0
 10
6284.644411098951
 20
5261.10520354195
 30
0.0
  0
SPLINE
  5
1E4
330
1F
100
AcDbEntity
  8
0
  6
Continuous
 62
     7
370
    25
100
AcDbSpline
210
0.0
220
0.0
230
1.0
 70
     8
 71
     3
 72
     9
 73
     5
 74
     0
 42
0.000000001
 43
0.00000001
 40
0.0
 40
0.0
 40
0.0
 40
0.0
 40
0.548826772989812
 40
1.0
 40
1.0
 40
1.0
 40
1.0
 10
6284.630423565203
 20
5260.963299783901
 30
0.0
 10
6284.640567261148
 20
5260.975974812341
 30
0.0
 10
6284.659049770464
 20
5260.999069582974
 30
0.0
 10
6284.661116819851
 20
5261.028406573977
 30
0.0
 10
6284.662049417192
 20
5261.041642638877
 30
0.0
  0
SPLINE
  5
1E5
330
1F
100
AcDbEntity
  8
0
  6
Continuous
 62
     7
370
    25
100
AcDbSpline
210
0.0
220
0.0
230
1.0
 70
     8
 71
     3
 72
     9
 73
     5
 74
     0
 42
0.000000001
 43
0.00000001
 40
0.0
 40
0.0
 40
0.0
 40
0.0
 40
0.6164410600440917
 40
0.9999999999999999
 40
0.9999999999999999
 40
0.9999999999999999
 40
0.9999999999999999
 10
6284.541677837068
 20
5260.924441280798
 30
0.0
 10
6284.561664349484
 20
5260.928772902212
 30
0.0
 10
6284.594086771855
 20
5260.935799723904
 30
0.0
 10
6284.620350050057
 20
5260.955676043735
 30
0.0
 10
6284.630423565203
 20
5260.963299783901
 30
0.0
  0
LINE
  5
1E6
330
1F
100
AcDbEntity
  8
0
  6
Continuous
 62
     7
370
    25
100
AcDbLine
 10
6284.5770932406
 20
5260.906593415
 30
0.0
 11
6284.5416778371
 21
5260.9244412808
 31
0.0
  0
SPLINE
  5
1E7
330
1F
100
AcDbEntity
  8
0
  6
Continuous
 62
     7
370
    25
100
AcDbSpline
210
0.0
220
0.0
230
1.0
 70
     8
 71
     3
 72
     9
 73
     5
 74
     0
 42
0.000000001
 43
0.00000001
 40
0.0
 40
0.0
 40
0.0
 40
0.0
 40
0.5892429444237499
 40
1.0
 40
1.0
 40
1.0
 40
1.0
 10
6284.623257969314
 20
5260.853541555837
 30
0.0
 10
6284.614935406974
 20
5260.864621883978
 30
0.0
 10
6284.600811245759
 20
5260.883426229869
 30
0.0
 10
6284.58399899233
 20
5260.899848040426
 30
0.0
 10
6284.577093240613
 20
5260.906593414978
 30
0.0
  0
SPLINE
  5
1E8
330
1F
100
AcDbEntity
  8
0
  6
Continuous
 62
     7
370
    25
100
AcDbSpline
210
0.0
220
0.0
230
1.0
 70
     8
 71
     3
 72
    11
 73
     7
 74
     0
 42
0.000000001
 43
0.00000001
 40
0.0
 40
0.0
 40
0.0
 40
0.0
 40
0.2817566757953072
 40
0.55621249430947
 40
0.7741729166306386
 40
1.0
 40
1.0
 40
1.0
 40
1.0
 10
6284.484144453699
 20
5261.349426123336
 30
0.0
 10
6284.54469926062
 20
5261.341510612823
 30
0.0
 10
6284.664239782972
 20
5261.325884697896
 30
0.0
 10
6284.796901086585
 20
5261.216306316989
 30
0.0
 10
6284.877900038028
 20
5261.082506402607
 30
0.0
 10
6284.887730833373
 20
5260.987407127728
 30
0.0
 10
6284.892733362311
 20
5260.939014616445
 30
0.0
  0
LINE
  5
1E9
330
1F
100
AcDbEntity
  8
0
  6
Continuous
 62
     7
370
    25
100
AcDbLine
 10
6278.9407797761
 20
5258.3169504134
 30
0.0
 11
6278.9407797761
 21
5258.1081106393
 31
0.0
  0
LINE
  5
1EA
330
1F
100
AcDbEntity
  8
0
  6
Continuous
 62
     7
370
    25
100
AcDbLine
 10
6278.9407797761
 20
5258.1081106393
 30
0.0
 11
6278.4730043866
 21
5258.1073842077
 31
0.0
  0
LINE
  5
1EB
330
1F
100
AcDbEntity
  8
0
  6
Continuous
 62
     7
370
    25
100
AcDbLine
 10
6278.4730043866
 20
5258.1073842077
 30
0.0
 11
6278.0010264039
 21
5258.106695029
 31
0.0
  0
LINE
  5
1EC
330
1F
100
AcDbEntity
  8
0
  6
Continuous
 62
     7
370
    25
100
AcDbLine
 10
6278.0010264039
 20
5258.106695029
 30
0.0
 11
6278.0010264039
 21
5258.308475378
 31
0.0
  0
SPLINE
  5
1ED
330
1F
100
AcDbEntity
  8
0
  6
Continuous
 62
     7
370
    25
100
AcDbSpline
210
0.0
220
0.0
230
1.0
 70
     8
 71
     3
 72
    12
 73
     8
 74
     0
 42
0.000000001
 43
0.00000001
 40
0.0
 40
0.0
 40
0.0
 40
0.0
 40
0.5788550475219368
 40
0.696747145703141
 40
0.801414371347036
 40
0.8983906115813528
 40
1.0
 40
1.0
 40
1.0
 40
1.0
 10
6278.001026403898
 20
5258.308475377992
 30
0.0
 10
6278.006366928134
 20
5258.538504719819
 30
0.0
 10
6278.01279512641
 20
5258.815382822604
 30
0.0
 10
6278.13753362118
 20
5259.105427211327
 30
0.0
 10
6278.212566899994
 20
5259.206510363866
 30
0.0
 10
6278.313485133113
 20
5259.276793089783
 30
0.0
 10
6278.391936237371
 20
5259.284083148634
 30
0.0
 10
6278.432076950366
 20
5259.287813219265
 30
0.0
  0
LINE
  5
1EE
330
1F
100
AcDbEntity
  8
0
  6
Continuous
 62
     7
370
    25
100
AcDbLine
 10
6278.4320769504
 20
5259.2878132193
 30
0.0
 11
6278.4709373161
 21
5259.2878132193
 31
0.0
  0
LINE
  5
1EF
330
1F
100
AcDbEntity
  8
0
  6
Continuous
 62
     7
370
    25
100
AcDbLine
 10
6278.4709373161
 20
5259.2878132193
 30
0.0
 11
6278.6197654575
 21
5259.2807500689
 31
0.0
  0
SPLINE
  5
1F0
330
1F
100
AcDbEntity
  8
0
  6
Continuous
 62
     7
370
    25
100
AcDbSpline
210
0.0
220
0.0
230
1.0
 70
     8
 71
     3
 72
    13
 73
     9
 74
     0
 42
0.000000001
 43
0.00000001
 40
0.0
 40
0.0
 40
0.0
 40
0.0
 40
0.0613010797617977
 40
0.1175319983084661
 40
0.1753167161171128
 40
0.2739164378245321
 40
0.3915838837468277
 40
1.0
 40
1.0
 40
1.0
 40
1.0
 10
6278.619765457505
 20
5259.280750068859
 30
0.0
 10
6278.642722259963
 20
5259.281241295283
 30
0.0
 10
6278.686737126882
 20
5259.282183119204
 30
0.0
 10
6278.748211893867
 20
5259.255734065778
 30
0.0
 10
6278.807326264495
 20
5259.202073439521
 30
0.0
 10
6278.857456091881
 20
5259.111602652407
 30
0.0
 10
6278.943702935589
 20
5258.81703853786
 30
0.0
 10
6278.942112483322
 20
5258.544947227038
 30
0.0
 10
6278.940779776121
 20
5258.316950413421
 30
0.0
  0
SPLINE
  5
1F1
330
1F
100
AcDbEntity
  8
0
  6
Continuous
 62
     7
370
    25
100
AcDbSpline
210
0.0
220
0.0
230
1.0
 70
     8
 71
     3
 72
     9
 73
     5
 74
     0
 42
0.000000001
 43
0.00000001
 40
0.0
 40
0.0
 40
0.0
 40
0.0
 40
0.4990136527109296
 40
1.0
 40
1.0
 40
1.0
 40
1.0
 10
6284.559386004502
 20
5260.977355304197
 30
0.0
 10
6284.54945931469
 20
5260.975313514343
 30
0.0
 10
6284.529566693001
 20
5260.971221863057
 30
0.0
 10
6284.509266804583
 20
5260.970604946069
 30
0.0
 10
6284.499096837634
 20
5260.970295879081
 30
0.0
  0
LINE
  5
1F2
330
1F
100
AcDbEntity
  8
0
  6
Continuous
 62
     7
370
    25
100
AcDbLine
 10
6284.4990968376
 20
5260.9702958791
 30
0.0
 11
6284.4920001596
 21
5260.9702958791
 31
0.0
  0
LINE
  5
1F3
330
1F
100
AcDbEntity
  8
0
  6
Continuous
 62
     7
370
    25
100
AcDbLine
 10
6284.3819634661
 20
5260.9701580433
 30
0.0
 11
6284.3817567125
 21
5261.1085115997
 31
0.0
  0
LINE
  5
1F4
330
1F
100
AcDbEntity
  8
0
  6
Continuous
 62
     7
370
    25
100
AcDbLine
 10
6284.3817567125
 20
5261.1085115997
 30
0.0
 11
6284.491793406
 21
5261.1086494355
 31
0.0
  0
LINE
  5
1F5
330
1F
100
AcDbEntity
  8
0
  6
Continuous
 62
     7
370
    25
100
AcDbLine
 10
6284.491793406
 20
5261.1086494355
 30
0.0
 11
6284.5130145222
 21
5261.108720216
 31
0.0
  0
SPLINE
  5
1F6
330
1F
100
AcDbEntity
  8
0
  6
Continuous
 62
     7
370
    25
100
AcDbSpline
210
0.0
220
0.0
230
1.0
 70
     8
 71
     3
 72
     9
 73
     5
 74
     0
 42
0.000000001
 43
0.00000001
 40
0.0
 40
0.0
 40
0.0
 40
0.0
 40
0.6333162944631059
 40
1.0
 40
1.0
 40
1.0
 40
1.0
 10
6284.513014522189
 20
5261.108720215992
 30
0.0
 10
6284.52824384956
 20
5261.108182113907
 30
0.0
 10
6284.552290802881
 20
5261.107332456179
 30
0.0
 10
6284.572859201701
 20
5261.095340416305
 30
0.0
 10
6284.580401298398
 20
5261.090943130687
 30
0.0
  0
SPLINE
  5
1F7
330
1F
100
AcDbEntity
  8
0
  6
Continuous
 62
     7
370
    25
100
AcDbSpline
210
0.0
220
0.0
230
1.0
 70
     8
 71
     3
 72
     9
 73
     5
 74
     0
 42
0.000000001
 43
0.00000001
 40
0.0
 40
0.0
 40
0.0
 40
0.0
 40
0.5502989826258867
 40
1.0
 40
1.0
 40
1.0
 40
1.0
 10
6284.580401298398
 20
5261.090943130687
 30
0.0
 10
6284.5872604428
 20
5261.083083535917
 30
0.0
 10
6284.599724838734
 20
5261.068801127589
 30
0.0
 10
6284.601081321
 20
5261.050021018028
 30
0.0
 10
6284.601691332454
 20
5261.041575583652
 30
0.0
  0
LINE
  5
1F8
330
1F
100
AcDbEntity
  8
0
  6
Continuous
 62
     7
370
    25
100
AcDbLine
 10
6284.6016913325
 20
5261.0415755837
 30
0.0
 11
6284.5912186101
 21
5261.0023333756
 31
0.0
  0
LINE
  5
1F9
330
1F
100
AcDbEntity
  8
0
  6
Continuous
 62
     7
370
    25
100
AcDbLine
 10
6284.5912186101
 20
5261.0023333756
 30
0.0
 11
6284.5593860045
 21
5260.9773553042
 31
0.0
  0
LINE
  5
1FA
330
1F
100
AcDbEntity
  8
0
  6
Continuous
 62
     7
370
    25
100
AcDbLine
 10
6284.4920001596
 20
5260.9702958791
 30
0.0
 11
6284.3819634661
 21
5260.9701580433
 31
0.0
  0
SPLINE
  5
1FB
330
1F
100
AcDbEntity
  8
0
  6
Continuous
 62
     7
370
    25
100
AcDbSpline
210
0.0
220
0.0
230
1.0
 70
     8
 71
     3
 72
    13
 73
     9
 74
     0
 42
0.000000001
 43
0.00000001
 40
0.0
 40
0.0
 40
0.0
 40
0.0
 40
0.0613585167112767
 40
0.1173607086774257
 40
0.1748204118304652
 40
0.2730436232262854
 40
0.3906041175655517
 40
1.0
 40
1.0
 40
1.0
 40
1.0
 10
6269.161117882276
 20
5259.273686918453
 30
0.0
 10
6269.184034568343
 20
5259.274462423301
 30
0.0
 10
6269.227867416031
 20
5259.275945734884
 30
0.0
 10
6269.289296865587
 20
5259.250189756152
 30
0.0
 10
6269.34818710374
 20
5259.197030182952
 30
0.0
 10
6269.397905835971
 20
5259.106931391751
 30
0.0
 10
6269.483190962788
 20
5258.812732778185
 30
0.0
 10
6269.482615011569
 20
5258.541105082221
 30
0.0
 10
6269.482132200891
 20
5258.313403937057
 30
0.0
  0
LINE
  5
1FC
330
1F
100
AcDbEntity
  8
0
  6
Continuous
 62
     7
370
    25
100
AcDbLine
 10
6269.4821322009
 20
5258.3134039371
 30
0.0
 11
6269.4786178552
 21
5258.1038712589
 31
0.0
  0
LINE
  5
1FD
330
1F
100
AcDbEntity
  8
0
  6
Continuous
 62
     7
370
    25
100
AcDbLine
 10
6269.4786178552
 20
5258.1038712589
 30
0.0
 11
6269.0143568113
 21
5258.1031485526
 31
0.0
  0
LINE
  5
1FE
330
1F
100
AcDbEntity
  8
0
  6
Continuous
 62
     7
370
    25
100
AcDbLine
 10
6268.5430680074
 20
5258.1024593739
 30
0.0
 11
6268.5423443697
 21
5258.3049624292
 31
0.0
  0
SPLINE
  5
1FF
330
1F
100
AcDbEntity
  8
0
  6
Continuous
 62
     7
370
    25
100
AcDbSpline
210
0.0
220
0.0
230
1.0
 70
     8
 71
     3
 72
    12
 73
     8
 74
     0
 42
0.000000001
 43
0.00000001
 40
0.0
 40
0.0
 40
0.0
 40
0.0
 40
0.5753159096338556
 40
0.6932112007404332
 40
0.7984881755245719
 40
0.8967335751981941
 40
1.0
 40
1.0
 40
1.0
 40
1.0
 10
6268.542344369734
 20
5258.304962429241
 30
0.0
 10
6268.54602233996
 20
5258.5352565881
 30
0.0
 10
6268.550454009788
 20
5258.812743248409
 30
0.0
 10
6268.678712916278
 20
5259.102029569852
 30
0.0
 10
6268.756067810413
 20
5259.203187928034
 30
0.0
 10
6268.859501902944
 20
5259.273264844217
 30
0.0
 10
6268.939497288079
 20
5259.280539026943
 30
0.0
 10
6268.98049159422
 20
5259.2842667429
 30
0.0
  0
LINE
  5
200
330
1F
100
AcDbEntity
  8
0
  6
Continuous
 62
     7
370
    25
100
AcDbLine
 10
6268.9804915942
 20
5259.2842667429
 30
0.0
 11
6269.0129444607
 21
5259.2807500689
 31
0.0
  0
LINE
  5
201
330
1F
100
AcDbEntity
  8
0
  6
Continuous
 62
     7
370
    25
100
AcDbLine
 10
6269.0129444607
 20
5259.2807500689
 30
0.0
 11
6269.1611178823
 21
5259.2736869185
 31
0.0
  0
LINE
  5
202
330
1F
100
AcDbEntity
  8
0
  6
Continuous
 62
     7
370
    25
100
AcDbLine
 10
6269.0143568113
 20
5258.1031485526
 30
0.0
 11
6268.5430680074
 21
5258.1024593739
 31
0.0
  0
CIRCLE
  5
203
330
1F
100
AcDbEntity
  8
0
  6
Continuous
 62
     7
370
    25
100
AcDbCircle
 10
6274.0187553361
 20
5213.3941166548
 30
0.0
 40
73.32842712474576
  0
ARC
  5
204
330
1F
100
AcDbEntity
  8
0
  6
Continuous
 62
     7
370
    25
100
AcDbCircle
 10
6329.0187553361
 20
5268.3941166548
 30
0.0
 40
28.0
100
AcDbArc
 50
0.0
 51
90.0
  0
LINE
  5
205
330
1F
100
AcDbEntity
  8
0
  6
Continuous
 62
     7
370
    25
100
AcDbLine
 10
6357.0187521771
 20
5158.3941183118
 30
0.0
 11
6357.0187521771
 21
5268.3941177158
 31
0.0
  0
ARC
  5
206
330
1F
100
AcDbEntity
  8
0
  6
Continuous
 62
     7
370
    25
100
AcDbCircle
 10
6329.0187553361
 20
5158.3941166548
 30
0.0
 40
28.0
100
AcDbArc
 50
270.0
 51
0.0
  0
LINE
  5
207
330
1F
100
AcDbEntity
  8
0
  6
Continuous
 62
     7
370
    25
100
AcDbLine
 10
6219.0187556341
 20
5130.3941137223
 30
0.0
 11
6329.0187550381
 21
5130.3941137223
 31
0.0
  0
ARC
  5
208
330
1F
100
AcDbEntity
  8
0
  6
Continuous
 62
     7
370
    25
100
AcDbCircle
 10
6219.0187553361
 20
5158.3941166548
 30
0.0
 40
28.0
100
AcDbArc
 50
180.0
 51
270.0
  0
LINE
  5
209
330
1F
100
AcDbEntity
  8
0
  6
Continuous
 62
     7
370
    25
100
AcDbLine
 10
6191.0187584951
 20
5268.3941177158
 30
0.0
 11
6191.0187584951
 21
5158.3941183118
 31
0.0
  0
ARC
  5
20A
330
1F
100
AcDbEntity
  8
0
  6
Continuous
 62
     7
370
    25
100
AcDbCircle
 10
6219.0187553361
 20
5268.3941166548
 30
0.0
 40
28.0
100
AcDbArc
 50
90.0
 51
180.0
  0
LINE
  5
20B
330
1F
100
AcDbEntity
  8
0
  6
Continuous
 62
     7
370
    25
100
AcDbLine
 10
6329.0187550381
 20
5296.3941148548
 30
0.0
 11
6219.0187556341
 21
5296.3941148548
 31
0.0
  0
ARC
  5
20C
330
1F
100
AcDbEntity
  8
0
  6
Continuous
 62
     7
370
    25
100
AcDbCircle
 10
6219.0187553361
 20
5158.3941166548
 30
0.0
 40
30.0
100
AcDbArc
 50
180.0
 51
270.0
  0
LINE
  5
20D
330
1F
100
AcDbEntity
  8
0
  6
Continuous
 62
     7
370
    25
100
AcDbLine
 10
6189.018754442
 20
5158.3941183118
 30
0.0
 11
6191.0187584951
 21
5158.3941183118
 31
0.0
  0
LINE
  5
20E
330
1F
100
AcDbEntity
  8
0
  6
Continuous
 62
     7
370
    25
100
AcDbLine
 10
6219.0187556341
 20
5128.3941171197
 30
0.0
 11
6219.0187556341
 21
5130.3941137223
 31
0.0
  0
LINE
  5
20F
330
1F
100
AcDbEntity
  8
0
  6
Continuous
 62
     7
370
    25
100
AcDbLine
 10
6329.0187550381
 20
5128.3941171197
 30
0.0
 11
6219.0187556341
 21
5128.3941171197
 31
0.0
  0
LINE
  5
210
330
1F
100
AcDbEntity
  8
0
  6
Continuous
 62
     7
370
    25
100
AcDbLine
 10
6329.0187550381
 20
5128.3941171197
 30
0.0
 11
6329.0187550381
 21
5130.3941137223
 31
0.0
  0
LINE
  5
211
330
1F
100
AcDbEntity
  8
0
  6
Continuous
 62
     7
370
    25
100
AcDbLine
 10
6357.0187521771
 20
5158.3941183118
 30
0.0
 11
6359.0187562302
 21
5158.3941183118
 31
0.0
  0
ARC
  5
212
330
1F
100
AcDbEntity
  8
0
  6
Continuous
 62
     7
370
    25
100
AcDbCircle
 10
6329.0187553361
 20
5158.3941166548
 30
0.0
 40
30.0
100
AcDbArc
 50
270.0
 51
0.0
  0
LINE
  5
213
330
1F
100
AcDbEntity
  8
0
  6
Continuous
 62
     7
370
    25
100
AcDbLine
 10
6357.0187521771
 20
5268.3941177158
 30
0.0
 11
6359.0187562302
 21
5268.3941177158
 31
0.0
  0
LINE
  5
214
330
1F
100
AcDbEntity
  8
0
  6
Continuous
 62
     7
370
    25
100
AcDbLine
 10
6359.0187562302
 20
5268.3941177158
 30
0.0
 11
6359.0187562302
 21
5158.3941183118
 31
0.0
  0
LINE
  5
215
330
1F
100
AcDbEntity
  8
0
  6
Continuous
 62
     7
370
    25
100
AcDbLine
 10
6189.018754442
 20
5158.3941183118
 30
0.0
 11
6189.018754442
 21
5268.3941177158
 31
0.0
  0
LINE
  5
216
330
1F
100
AcDbEntity
  8
0
  6
Continuous
 62
     7
370
    25
100
AcDbLine
 10
6189.018754442
 20
5268.3941177158
 30
0.0
 11
6191.0187584951
 21
5268.3941177158
 31
0.0
  0
LINE
  5
217
330
1F
100
AcDbEntity
  8
0
  6
Continuous
 62
     7
370
    25
100
AcDbLine
 10
6329.0187550381
 20
5296.3941148548
 30
0.0
 11
6329.0187550381
 21
5298.3941189079
 31
0.0
  0
ARC
  5
218
330
1F
100
AcDbEntity
  8
0
  6
Continuous
 62
     7
370
    25
100
AcDbCircle
 10
6329.0187553361
 20
5268.3941166548
 30
0.0
 40
30.0
100
AcDbArc
 50
0.0
 51
90.0
  0
ARC
  5
219
330
1F
100
AcDbEntity
  8
0
  6
Continuous
 62
     7
370
    25
100
AcDbCircle
 10
6219.0187553361
 20
5268.3941166548
 30
0.0
 40
30.0
100
AcDbArc
 50
90.0
 51
180.0
  0
LINE
  5
21A
330
1F
100
AcDbEntity
  8
0
  6
Continuous
 62
     7
370
    25
100
AcDbLine
 10
6219.0187556341
 20
5296.3941148548
 30
0.0
 11
6219.0187556341
 21
5298.3941189079
 31
0.0
  0
LINE
  5
21B
330
1F
100
AcDbEntity
  8
0
  6
Continuous
 62
     7
370
    25
100
AcDbLine
 10
6219.0187556341
 20
5298.3941189079
 30
0.0
 11
6329.0187550381
 21
5298.3941189079
 31
0.0
  0
LINE
  5
21C
330
1F
100
AcDbEntity
  8
0
  6
Continuous
 62
     7
370
    25
100
AcDbLine
 10
6274.0556778015
 20
5298.8941199212
 30
0.0
 11
6285.7392552912
 21
5298.8941199212
 31
0.0
  0
LINE
  5
21D
330
1F
100
AcDbEntity
  8
0
  6
Continuous
 62
     7
370
    25
100
AcDbLine
 10
6262.298255381
 20
5298.8941199212
 30
0.0
 11
6274.0556778015
 21
5298.8941199212
 31
0.0
  0
LINE
  5
21E
330
1F
100
AcDbEntity
  8
0
  6
Continuous
 62
     7
370
    25
100
AcDbLine
 10
6628.2968066054
 20
5279.3941176562
 30
0.0
 11
6558.6968056279
 21
5279.3941176562
 31
0.0
  0
LINE
  5
21F
330
1F
100
AcDbEntity
  8
0
  6
Continuous
 62
     7
370
    25
100
AcDbLine
 10
6558.6968056279
 20
5148.3941129474
 30
0.0
 11
6628.2968066054
 21
5148.3941129474
 31
0.0
  0
LINE
  5
220
330
1F
100
AcDbEntity
  8
0
  6
Continuous
 62
     7
370
    25
100
AcDbLine
 10
6628.2193131166
 20
5273.3124881117
 30
0.0
 11
6628.2968066054
 21
5273.4454176454
 31
0.0
  0
LINE
  5
221
330
1F
100
AcDbEntity
  8
0
  6
Continuous
 62
     7
370
    25
100
AcDbLine
 10
6628.3695689755
 20
5154.3748616306
 30
0.0
 11
6628.2968066054
 21
5154.2500271527
 31
0.0
  0
LINE
  5
222
330
1F
100
AcDbEntity
  8
0
  6
Continuous
 62
     7
370
    25
100
AcDbLine
 10
6628.2193131166
 20
5150.3124884395
 30
0.0
 11
6628.2968066054
 21
5150.4454216985
 31
0.0
  0
LINE
  5
223
330
1F
100
AcDbEntity
  8
0
  6
Continuous
 62
     7
370
    25
100
AcDbLine
 10
6628.6968059259
 20
5293.1441194443
 30
0.0
 11
6628.6968059259
 21
5268.3941177158
 31
0.0
  0
LINE
  5
224
330
1F
100
AcDbEntity
  8
0
  6
Continuous
 62
     7
370
    25
100
AcDbLine
 10
6628.6968059259
 20
5158.3941183118
 30
0.0
 11
6628.6968059259
 21
5134.0594342975
 31
0.0
  0
LINE
  5
225
330
1F
100
AcDbEntity
  8
0
  6
Continuous
 62
     7
370
    25
100
AcDbLine
 10
6628.6968059259
 20
5268.3941177158
 30
0.0
 11
6628.6968059259
 21
5158.3941183118
 31
0.0
  0
ARC
  5
226
330
1F
100
AcDbEntity
  8
0
  6
Continuous
 62
     7
370
    25
100
AcDbCircle
 10
6640.6968056279
 20
5140.0656895301
 30
0.0
 40
1.0
100
AcDbArc
 50
109.4712206345
 51
180.0
  0
ARC
  5
227
330
1F
100
AcDbEntity
  8
0
  6
Continuous
 62
     7
370
    25
100
AcDbCircle
 10
6640.6968056279
 20
5286.7225437796
 30
0.0
 40
0.9999999999991915
100
AcDbArc
 50
180.0
 51
250.5287793655
  0
ARC
  5
228
330
1F
100
AcDbEntity
  8
0
  6
Continuous
 62
     7
370
    25
100
AcDbCircle
 10
6639.6968056279
 20
5283.8941166548
 30
0.0
 40
2.000000000000098
100
AcDbArc
 50
0.0
 51
70.5287793655
  0
ARC
  5
229
330
1F
100
AcDbEntity
  8
0
  6
Continuous
 62
     7
370
    25
100
AcDbCircle
 10
6639.6968056279
 20
5142.8941166548
 30
0.0
 40
2.000000000000098
100
AcDbArc
 50
289.4712206345
 51
0.0
  0
LINE
  5
22A
330
1F
100
AcDbEntity
  8
0
  6
Continuous
 62
     7
370
    25
100
AcDbLine
 10
6641.703053506
 20
5259.4911619155
 30
0.0
 11
6641.6968024689
 21
5259.4911619155
 31
0.0
  0
LINE
  5
22B
330
1F
100
AcDbEntity
  8
0
  6
Continuous
 62
     7
370
    25
100
AcDbLine
 10
6641.6968024689
 20
5259.5689348011
 30
0.0
 11
6641.703053506
 21
5259.5689348011
 31
0.0
  0
LINE
  5
22C
330
1F
100
AcDbEntity
  8
0
  6
Continuous
 62
     7
370
    25
100
AcDbLine
 10
6641.6968024689
 20
5255.1944865911
 30
0.0
 11
6641.703053506
 21
5255.1944865911
 31
0.0
  0
LINE
  5
22D
330
1F
100
AcDbEntity
  8
0
  6
Continuous
 62
     7
370
    25
100
AcDbLine
 10
6641.6968024689
 20
5255.2513643233
 30
0.0
 11
6641.703053506
 21
5255.2513643233
 31
0.0
  0
LINE
  5
22E
330
1F
100
AcDbEntity
  8
0
  6
Continuous
 62
     7
370
    25
100
AcDbLine
 10
6641.6968024689
 20
5259.5701380698
 30
0.0
 11
6641.703053506
 21
5259.5701380698
 31
0.0
  0
LINE
  5
22F
330
1F
100
AcDbEntity
  8
0
  6
Continuous
 62
     7
370
    25
100
AcDbLine
 10
6641.703053506
 20
5261.3494298486
 30
0.0
 11
6641.6968024689
 21
5261.3494298486
 31
0.0
  0
ARC
  5
230
330
1F
100
AcDbEntity
  8
0
  6
Continuous
 62
     7
370
    25
100
AcDbCircle
 10
6613.9968056279
 20
5280.2941166548
 30
0.0
 40
0.8000000000001819
100
AcDbArc
 50
0.0
 51
90.0
  0
ARC
  5
231
330
1F
100
AcDbEntity
  8
0
  6
Continuous
 62
     7
370
    25
100
AcDbCircle
 10
6602.3968056279
 20
5280.2941166548
 30
0.0
 40
0.8000000000010914
100
AcDbArc
 50
90.0
 51
180.0
  0
LINE
  5
232
330
1F
100
AcDbEntity
  8
0
  6
Continuous
 62
     7
370
    25
100
AcDbLine
 10
6614.7968053239
 20
5279.3941176562
 30
0.0
 11
6614.7968053239
 21
5280.29411799
 31
0.0
  0
LINE
  5
233
330
1F
100
AcDbEntity
  8
0
  6
Continuous
 62
     7
370
    25
100
AcDbLine
 10
6601.5968053955
 20
5280.29411799
 30
0.0
 11
6601.5968053955
 21
5279.3941176562
 31
0.0
  0
LINE
  5
234
330
1F
100
AcDbEntity
  8
0
  6
Continuous
 62
     7
370
    25
100
AcDbLine
 10
6571.7801471594
 20
5129.5902780323
 30
0.0
 11
6572.476305196
 21
5128.894118133
 31
0.0
  0
LINE
  5
235
330
1F
100
AcDbEntity
  8
0
  6
Continuous
 62
     7
370
    25
100
AcDbLine
 10
6570.9763058814
 20
5130.3941137223
 30
0.0
 11
6571.120185906
 21
5130.2502355604
 31
0.0
  0
LINE
  5
236
330
1F
100
AcDbEntity
  8
0
  6
Continuous
 62
     7
370
    25
100
AcDbLine
 10
6595.9173060375
 20
5128.894118133
 30
0.0
 11
6597.1095553952
 21
5130.0863674907
 31
0.0
  0
SPLINE
  5
237
330
1F
100
AcDbEntity
  8
0
  6
Continuous
 62
     7
370
    25
100
AcDbSpline
210
0.0
220
0.0
230
1.0
 70
     8
 71
     3
 72
     9
 73
     5
 74
     0
 42
0.000000001
 43
0.00000001
 40
0.0
 40
0.0
 40
0.0
 40
0.0
 40
0.4999902014443098
 40
1.0
 40
1.0
 40
1.0
 40
1.0
 10
6596.550203056905
 20
5132.214998367265
 30
0.0
 10
6596.693494647936
 20
5132.297780095852
 30
0.0
 10
6596.980083446311
 20
5132.463346797656
 30
0.0
 10
6597.26667774733
 20
5132.628903765858
 30
0.0
 10
6597.409977706048
 20
5132.711683872179
 30
0.0
  0
SPLINE
  5
238
330
1F
100
AcDbEntity
  8
0
  6
Continuous
 62
     7
370
    25
100
AcDbSpline
210
0.0
220
0.0
230
1.0
 70
     8
 71
     3
 72
     9
 73
     5
 74
     0
 42
0.000000001
 43
0.00000001
 40
0.0
 40
0.0
 40
0.0
 40
0.0
 40
0.4999920782730022
 40
1.0
 40
1.0
 40
1.0
 40
1.0
 10
6596.550203056905
 20
5133.802493575052
 30
0.0
 10
6596.693494379
 20
5133.885278252684
 30
0.0
 10
6596.980081563721
 20
5134.050850231178
 30
0.0
 10
6597.266677478383
 20
5134.21640688976
 30
0.0
 10
6597.409977706048
 20
5134.299186530546
 30
0.0
  0
SPLINE
  5
239
330
1F
100
AcDbEntity
  8
0
  6
Continuous
 62
     7
370
    25
100
AcDbSpline
210
0.0
220
0.0
230
1.0
 70
     8
 71
     3
 72
     9
 73
     5
 74
     0
 42
0.000000001
 43
0.00000001
 40
0.0
 40
0.0
 40
0.0
 40
0.0
 40
0.4999902014443098
 40
1.0
 40
1.0
 40
1.0
 40
1.0
 10
6596.550203056905
 20
5135.389996233419
 30
0.0
 10
6596.693494647936
 20
5135.472777962006
 30
0.0
 10
6596.980083446311
 20
5135.638344663809
 30
0.0
 10
6597.26667774733
 20
5135.803901632012
 30
0.0
 10
6597.409977706048
 20
5135.886681738332
 30
0.0
  0
SPLINE
  5
23A
330
1F
100
AcDbEntity
  8
0
  6
Continuous
 62
     7
370
    25
100
AcDbSpline
210
0.0
220
0.0
230
1.0
 70
     8
 71
     3
 72
     9
 73
     5
 74
     0
 42
0.000000001
 43
0.00000001
 40
0.0
 40
0.0
 40
0.0
 40
0.0
 40
0.4999902014443098
 40
1.0
 40
1.0
 40
1.0
 40
1.0
 10
6596.550203056905
 20
5136.977498891786
 30
0.0
 10
6596.693494647936
 20
5137.060280620373
 30
0.0
 10
6596.980083446311
 20
5137.225847322176
 30
0.0
 10
6597.26667774733
 20
5137.391404290379
 30
0.0
 10
6597.409977706048
 20
5137.474184396699
 30
0.0
  0
SPLINE
  5
23B
330
1F
100
AcDbEntity
  8
0
  6
Continuous
 62
     7
370
    25
100
AcDbSpline
210
0.0
220
0.0
230
1.0
 70
     8
 71
     3
 72
     9
 73
     5
 74
     0
 42
0.000000001
 43
0.00000001
 40
0.0
 40
0.0
 40
0.0
 40
0.0
 40
0.5045951396862661
 40
1.0
 40
1.0
 40
1.0
 40
1.0
 10
6570.983635390076
 20
5131.917936268285
 30
0.0
 10
6571.126934037089
 20
5131.835156041048
 30
0.0
 10
6571.410921407838
 20
5131.671103277305
 30
0.0
 10
6571.694904199599
 20
5131.507042380753
 30
0.0
 10
6571.835590654883
 20
5131.425765815214
 30
0.0
  0
SPLINE
  5
23C
330
1F
100
AcDbEntity
  8
0
  6
Continuous
 62
     7
370
    25
100
AcDbSpline
210
0.0
220
0.0
230
1.0
 70
     8
 71
     3
 72
     9
 73
     5
 74
     0
 42
0.000000001
 43
0.00000001
 40
0.0
 40
0.0
 40
0.0
 40
0.0
 40
0.5045951396862661
 40
1.0
 40
1.0
 40
1.0
 40
1.0
 10
6570.983635390076
 20
5133.505431476072
 30
0.0
 10
6571.126934037089
 20
5133.422651248835
 30
0.0
 10
6571.410921407838
 20
5133.258598485091
 30
0.0
 10
6571.694904199599
 20
5133.094537588539
 30
0.0
 10
6571.835590654883
 20
5133.013261023
 30
0.0
  0
SPLINE
  5
23D
330
1F
100
AcDbEntity
  8
0
  6
Continuous
 62
     7
370
    25
100
AcDbSpline
210
0.0
220
0.0
230
1.0
 70
     8
 71
     3
 72
     9
 73
     5
 74
     0
 42
0.000000001
 43
0.00000001
 40
0.0
 40
0.0
 40
0.0
 40
0.0
 40
0.5045951396862661
 40
1.0
 40
1.0
 40
1.0
 40
1.0
 10
6570.983635390076
 20
5135.092934134439
 30
0.0
 10
6571.126934037089
 20
5135.010153907202
 30
0.0
 10
6571.410921407838
 20
5134.846101143458
 30
0.0
 10
6571.694904199599
 20
5134.682040246907
 30
0.0
 10
6571.835590654883
 20
5134.600763681367
 30
0.0
  0
SPLINE
  5
23E
330
1F
100
AcDbEntity
  8
0
  6
Continuous
 62
     7
370
    25
100
AcDbSpline
210
0.0
220
0.0
230
1.0
 70
     8
 71
     3
 72
     9
 73
     5
 74
     0
 42
0.000000001
 43
0.00000001
 40
0.0
 40
0.0
 40
0.0
 40
0.0
 40
0.5045989276270937
 40
1.0
 40
1.0
 40
1.0
 40
1.0
 10
6570.983635390076
 20
5136.680436792806
 30
0.0
 10
6571.126933489249
 20
5136.597653133721
 30
0.0
 10
6571.410917642459
 20
5136.433594800356
 30
0.0
 10
6571.694903671539
 20
5136.269539507663
 30
0.0
 10
6571.835590654883
 20
5136.188266339735
 30
0.0
  0
LINE
  5
23F
330
1F
100
AcDbEntity
  8
0
  6
Continuous
 62
     7
370
    25
100
AcDbLine
 10
6571.6534537616
 20
5137.8809860973
 30
0.0
 11
6571.8355906549
 21
5137.7757615475
 31
0.0
  0
SPLINE
  5
240
330
1F
100
AcDbEntity
  8
0
  6
Continuous
 62
     7
370
    25
100
AcDbSpline
210
0.0
220
0.0
230
1.0
 70
     8
 71
     3
 72
     9
 73
     5
 74
     0
 42
0.000000001
 43
0.00000001
 40
0.0
 40
0.0
 40
0.0
 40
0.0
 40
0.3893990011975381
 40
0.9999999999999999
 40
0.9999999999999999
 40
0.9999999999999999
 40
0.9999999999999999
 10
6571.144367696616
 20
5130.237584474519
 30
0.0
 10
6571.234088619298
 20
5130.185753450077
 30
0.0
 10
6571.464497332227
 20
5130.052648269315
 30
0.0
 10
6571.694904070415
 20
5129.919539502695
 30
0.0
 10
6571.835590654883
 20
5129.838263156847
 30
0.0
  0
SPLINE
  5
241
330
1F
100
AcDbEntity
  8
0
  6
Continuous
 62
     7
370
    25
100
AcDbSpline
210
0.0
220
0.0
230
1.0
 70
     8
 71
     3
 72
     9
 73
     5
 74
     0
 42
0.000000001
 43
0.00000001
 40
0.0
 40
0.0
 40
0.0
 40
0.0
 40
0.4999902014443098
 40
1.0
 40
1.0
 40
1.0
 40
1.0
 10
6596.550203056905
 20
5130.627495708898
 30
0.0
 10
6596.693494647936
 20
5130.710277437485
 30
0.0
 10
6596.980083446311
 20
5130.875844139288
 30
0.0
 10
6597.26667774733
 20
5131.041401107491
 30
0.0
 10
6597.409977706048
 20
5131.124181213811
 30
0.0
  0
SPLINE
  5
242
330
1F
100
AcDbEntity
  8
0
  6
Continuous
 62
     7
370
    25
100
AcDbSpline
210
0.0
220
0.0
230
1.0
 70
     8
 71
     3
 72
     9
 73
     5
 74
     0
 42
0.000000001
 43
0.00000001
 40
0.0
 40
0.0
 40
0.0
 40
0.0
 40
0.504606994503413
 40
1.0
 40
1.0
 40
1.0
 40
1.0
 10
6597.409955354306
 20
5131.538172724679
 30
0.0
 10
6597.266656507109
 20
5131.620952599623
 30
0.0
 10
6596.982675411407
 20
5131.785000811092
 30
0.0
 10
6596.698701253039
 20
5131.949061305676
 30
0.0
 10
6596.558022441242
 20
5132.03033572717
 30
0.0
  0
SPLINE
  5
243
330
1F
100
AcDbEntity
  8
0
  6
Continuous
 62
     7
370
    25
100
AcDbSpline
210
0.0
220
0.0
230
1.0
 70
     8
 71
     3
 72
     9
 73
     5
 74
     0
 42
0.000000001
 43
0.00000001
 40
0.0
 40
0.0
 40
0.0
 40
0.0
 40
0.5046088710498393
 40
1.0
 40
1.0
 40
1.0
 40
1.0
 10
6597.409955354306
 20
5133.125667932466
 30
0.0
 10
6597.266656778511
 20
5133.208450760741
 30
0.0
 10
6596.982677276728
 20
5133.372504214861
 30
0.0
 10
6596.698701514625
 20
5133.536564416856
 30
0.0
 10
6596.558022441242
 20
5133.617838385538
 30
0.0
  0
SPLINE
  5
244
330
1F
100
AcDbEntity
  8
0
  6
Continuous
 62
     7
370
    25
100
AcDbSpline
210
0.0
220
0.0
230
1.0
 70
     8
 71
     3
 72
     9
 73
     5
 74
     0
 42
0.000000001
 43
0.00000001
 40
0.0
 40
0.0
 40
0.0
 40
0.0
 40
0.5046107825651787
 40
1.0
 40
1.0
 40
1.0
 40
1.0
 10
6597.409955354306
 20
5134.713170590833
 30
0.0
 10
6597.266657054975
 20
5134.795953897658
 30
0.0
 10
6596.982679176809
 20
5134.96000767868
 30
0.0
 10
6596.698701781082
 20
5135.124062569396
 30
0.0
 10
6596.558022441242
 20
5135.205333593324
 30
0.0
  0
SPLINE
  5
245
330
1F
100
AcDbEntity
  8
0
  6
Continuous
 62
     7
370
    25
100
AcDbSpline
210
0.0
220
0.0
230
1.0
 70
     8
 71
     3
 72
     9
 73
     5
 74
     0
 42
0.000000001
 43
0.00000001
 40
0.0
 40
0.0
 40
0.0
 40
0.0
 40
0.504606994503413
 40
1.0
 40
1.0
 40
1.0
 40
1.0
 10
6597.409955354306
 20
5136.3006732492
 30
0.0
 10
6597.266656507109
 20
5136.383453124144
 30
0.0
 10
6596.982675411407
 20
5136.547501335613
 30
0.0
 10
6596.698701253039
 20
5136.711561830197
 30
0.0
 10
6596.558022441242
 20
5136.792836251691
 30
0.0
  0
SPLINE
  5
246
330
1F
100
AcDbEntity
  8
0
  6
Continuous
 62
     7
370
    25
100
AcDbSpline
210
0.0
220
0.0
230
1.0
 70
     8
 71
     3
 72
     9
 73
     5
 74
     0
 42
0.000000001
 43
0.00000001
 40
0.0
 40
0.0
 40
0.0
 40
0.0
 40
0.4999922146772222
 40
1.0
 40
1.0
 40
1.0
 40
1.0
 10
6571.843429596994
 20
5131.24111807628
 30
0.0
 10
6571.700136975081
 20
5131.158334030793
 30
0.0
 10
6571.413547268871
 20
5130.992763361774
 30
0.0
 10
6571.126953254794
 20
5130.827200426703
 30
0.0
 10
6570.983654016528
 20
5130.744417670206
 30
0.0
  0
SPLINE
  5
247
330
1F
100
AcDbEntity
  8
0
  6
Continuous
 62
     7
370
    25
100
AcDbSpline
210
0.0
220
0.0
230
1.0
 70
     8
 71
     3
 72
     9
 73
     5
 74
     0
 42
0.000000001
 43
0.00000001
 40
0.0
 40
0.0
 40
0.0
 40
0.0
 40
0.4999903378667072
 40
1.0
 40
1.0
 40
1.0
 40
1.0
 10
6571.843429596994
 20
5132.828613284067
 30
0.0
 10
6571.70013670615
 20
5132.745832187617
 30
0.0
 10
6571.413545386296
 20
5132.580266795289
 30
0.0
 10
6571.126952985847
 20
5132.414703550608
 30
0.0
 10
6570.983654016528
 20
5132.331920328573
 30
0.0
  0
SPLINE
  5
248
330
1F
100
AcDbEntity
  8
0
  6
Continuous
 62
     7
370
    25
100
AcDbSpline
210
0.0
220
0.0
230
1.0
 70
     8
 71
     3
 72
     9
 73
     5
 74
     0
 42
0.000000001
 43
0.00000001
 40
0.0
 40
0.0
 40
0.0
 40
0.0
 40
0.4999940913708478
 40
1.0
 40
1.0
 40
1.0
 40
1.0
 10
6571.843429596994
 20
5134.416115942434
 30
0.0
 10
6571.700137244001
 20
5134.333331431437
 30
0.0
 10
6571.413549151331
 20
5134.167760452848
 30
0.0
 10
6571.12695352372
 20
5134.002202794389
 30
0.0
 10
6570.983654016528
 20
5133.91942298694
 30
0.0
  0
SPLINE
  5
249
330
1F
100
AcDbEntity
  8
0
  6
Continuous
 62
     7
370
    25
100
AcDbSpline
210
0.0
220
0.0
230
1.0
 70
     8
 71
     3
 72
     9
 73
     5
 74
     0
 42
0.000000001
 43
0.00000001
 40
0.0
 40
0.0
 40
0.0
 40
0.0
 40
0.4999922146772222
 40
1.0
 40
1.0
 40
1.0
 40
1.0
 10
6571.843429596994
 20
5136.003618600801
 30
0.0
 10
6571.700136975081
 20
5135.920834555313
 30
0.0
 10
6571.413547268871
 20
5135.755263886295
 30
0.0
 10
6571.126953254794
 20
5135.589700951224
 30
0.0
 10
6570.983654016528
 20
5135.506918194726
 30
0.0
  0
SPLINE
  5
24A
330
1F
100
AcDbEntity
  8
0
  6
Continuous
 62
     7
370
    25
100
AcDbSpline
210
0.0
220
0.0
230
1.0
 70
     8
 71
     3
 72
     9
 73
     5
 74
     0
 42
0.000000001
 43
0.00000001
 40
0.0
 40
0.0
 40
0.0
 40
0.0
 40
0.4999903378667072
 40
1.0
 40
1.0
 40
1.0
 40
1.0
 10
6571.843429596994
 20
5137.591113808588
 30
0.0
 10
6571.70013670615
 20
5137.508332712138
 30
0.0
 10
6571.413545386296
 20
5137.34276731981
 30
0.0
 10
6571.126952985847
 20
5137.177204075128
 30
0.0
 10
6570.983654016528
 20
5137.094420853094
 30
0.0
  0
SPLINE
  5
24B
330
1F
100
AcDbEntity
  8
0
  6
Continuous
 62
     7
370
    25
100
AcDbSpline
210
0.0
220
0.0
230
1.0
 70
     8
 71
     3
 72
     9
 73
     5
 74
     0
 42
0.000000001
 43
0.00000001
 40
0.0
 40
0.0
 40
0.0
 40
0.0
 40
0.2113492812953901
 40
1.0
 40
1.0
 40
1.0
 40
1.0
 10
6597.093160392616
 20
5130.133678677515
 30
0.0
 10
6597.055460508748
 20
5130.15545929895
 30
0.0
 10
6596.877083352051
 20
5130.258514399495
 30
0.0
 10
6596.698702571794
 20
5130.361563400275
 30
0.0
 10
6596.558022441242
 20
5130.442833068803
 30
0.0
  0
LINE
  5
24C
330
1F
100
AcDbEntity
  8
0
  6
Continuous
 62
     7
370
    25
100
AcDbLine
 10
6570.9763058814
 20
5130.7359240083
 30
0.0
 11
6570.9763058814
 21
5130.3941137223
 31
0.0
  0
LINE
  5
24D
330
1F
100
AcDbEntity
  8
0
  6
Continuous
 62
     7
370
    25
100
AcDbLine
 10
6570.9763058814
 20
5132.3234266667
 30
0.0
 11
6570.9763058814
 21
5131.9265491395
 31
0.0
  0
LINE
  5
24E
330
1F
100
AcDbEntity
  8
0
  6
Continuous
 62
     7
370
    25
100
AcDbLine
 10
6570.9763058814
 20
5133.9109218745
 30
0.0
 11
6570.9763058814
 21
5133.5140517978
 31
0.0
  0
LINE
  5
24F
330
1F
100
AcDbEntity
  8
0
  6
Continuous
 62
     7
370
    25
100
AcDbLine
 10
6570.9763058814
 20
5135.4984245328
 30
0.0
 11
6570.9763058814
 21
5135.1015470056
 31
0.0
  0
LINE
  5
250
330
1F
100
AcDbEntity
  8
0
  6
Continuous
 62
     7
370
    25
100
AcDbLine
 10
6570.9763058814
 20
5137.0859271912
 30
0.0
 11
6570.9763058814
 21
5136.689049664
 31
0.0
  0
LINE
  5
251
330
1F
100
AcDbEntity
  8
0
  6
Continuous
 62
     7
370
    25
100
AcDbLine
 10
6597.4173053521
 20
5137.4829537301
 30
0.0
 11
6597.4173053521
 21
5137.8941140203
 31
0.0
  0
LINE
  5
252
330
1F
100
AcDbEntity
  8
0
  6
Continuous
 62
     7
370
    25
100
AcDbLine
 10
6597.4173053521
 20
5135.8954510717
 30
0.0
 11
6597.4173053521
 21
5136.2921423344
 31
0.0
  0
LINE
  5
253
330
1F
100
AcDbEntity
  8
0
  6
Continuous
 62
     7
370
    25
100
AcDbLine
 10
6597.4173053521
 20
5134.3079558639
 30
0.0
 11
6597.4173053521
 21
5134.7046471266
 31
0.0
  0
LINE
  5
254
330
1F
100
AcDbEntity
  8
0
  6
Continuous
 62
     7
370
    25
100
AcDbLine
 10
6597.4173053521
 20
5132.7204532055
 30
0.0
 11
6597.4173053521
 21
5133.1171444683
 31
0.0
  0
LINE
  5
255
330
1F
100
AcDbEntity
  8
0
  6
Continuous
 62
     7
370
    25
100
AcDbLine
 10
6597.4173053521
 20
5131.1329505472
 30
0.0
 11
6597.4173053521
 21
5131.5296418099
 31
0.0
  0
LINE
  5
256
330
1F
100
AcDbEntity
  8
0
  6
Continuous
 62
     7
370
    25
100
AcDbLine
 10
6596.5580224412
 20
5132.0251650242
 30
0.0
 11
6596.5580224412
 21
5132.2195134191
 31
0.0
  0
LINE
  5
257
330
1F
100
AcDbEntity
  8
0
  6
Continuous
 62
     7
370
    25
100
AcDbLine
 10
6596.5580224412
 20
5133.6126676826
 30
0.0
 11
6596.5580224412
 21
5133.8070160775
 31
0.0
  0
LINE
  5
258
330
1F
100
AcDbEntity
  8
0
  6
Continuous
 62
     7
370
    25
100
AcDbLine
 10
6596.5580224412
 20
5135.2001628904
 30
0.0
 11
6596.5580224412
 21
5135.3945112853
 31
0.0
  0
LINE
  5
259
330
1F
100
AcDbEntity
  8
0
  6
Continuous
 62
     7
370
    25
100
AcDbLine
 10
6596.5580224412
 20
5136.7876655488
 30
0.0
 11
6596.5580224412
 21
5136.9820139436
 31
0.0
  0
LINE
  5
25A
330
1F
100
AcDbEntity
  8
0
  6
Continuous
 62
     7
370
    25
100
AcDbLine
 10
6571.8355906549
 20
5131.4298487334
 30
0.0
 11
6571.8355906549
 21
5131.2365881233
 31
0.0
  0
LINE
  5
25B
330
1F
100
AcDbEntity
  8
0
  6
Continuous
 62
     7
370
    25
100
AcDbLine
 10
6571.8355906549
 20
5133.0173513917
 30
0.0
 11
6571.8355906549
 21
5132.8240833311
 31
0.0
  0
LINE
  5
25C
330
1F
100
AcDbEntity
  8
0
  6
Continuous
 62
     7
370
    25
100
AcDbLine
 10
6571.8355906549
 20
5134.6048540501
 30
0.0
 11
6571.8355906549
 21
5134.4115859894
 31
0.0
  0
LINE
  5
25D
330
1F
100
AcDbEntity
  8
0
  6
Continuous
 62
     7
370
    25
100
AcDbLine
 10
6571.8355906549
 20
5136.1923492579
 30
0.0
 11
6571.8355906549
 21
5135.9990886478
 31
0.0
  0
LINE
  5
25E
330
1F
100
AcDbEntity
  8
0
  6
Continuous
 62
     7
370
    25
100
AcDbLine
 10
6571.8355906549
 20
5137.7798519163
 30
0.0
 11
6571.8355906549
 21
5137.5865838556
 31
0.0
  0
LINE
  5
25F
330
1F
100
AcDbEntity
  8
0
  6
Continuous
 62
     7
370
    25
100
AcDbLine
 10
6571.8355906549
 20
5129.8423535256
 30
0.0
 11
6571.8355906549
 21
5129.643914762
 31
0.0
  0
LINE
  5
260
330
1F
100
AcDbEntity
  8
0
  6
Continuous
 62
     7
370
    25
100
AcDbLine
 10
6596.5580224412
 20
5130.4376623659
 30
0.0
 11
6596.5580224412
 21
5130.6320107607
 31
0.0
  0
LINE
  5
261
330
1F
100
AcDbEntity
  8
0
  6
Continuous
 62
     7
370
    25
100
AcDbLine
 10
6597.3325438219
 20
5297.4788821368
 30
0.0
 11
6595.9173060375
 21
5298.8941199212
 31
0.0
  0
LINE
  5
262
330
1F
100
AcDbEntity
  8
0
  6
Continuous
 62
     7
370
    25
100
AcDbLine
 10
6572.476305196
 20
5298.8941199212
 30
0.0
 11
6571.575914638
 21
5297.9937247066
 31
0.0
  0
SPLINE
  5
263
330
1F
100
AcDbEntity
  8
0
  6
Continuous
 62
     7
370
    25
100
AcDbSpline
210
0.0
220
0.0
230
1.0
 70
     8
 71
     3
 72
     9
 73
     5
 74
     0
 42
0.000000001
 43
0.00000001
 40
0.0
 40
0.0
 40
0.0
 40
0.0
 40
0.499993384738592
 40
1.0
 40
1.0
 40
1.0
 40
1.0
 10
6571.842478716645
 20
5296.031889977888
 30
0.0
 10
6571.699195342861
 20
5295.949118446973
 30
0.0
 10
6571.412624803817
 20
5295.783573194892
 30
0.0
 10
6571.126050738115
 20
5295.618034513432
 30
0.0
 10
6570.982761809501
 20
5295.535264077619
 30
0.0
  0
SPLINE
  5
264
330
1F
100
AcDbEntity
  8
0
  6
Continuous
 62
     7
370
    25
100
AcDbSpline
210
0.0
220
0.0
230
1.0
 70
     8
 71
     3
 72
     9
 73
     5
 74
     0
 42
0.000000001
 43
0.00000001
 40
0.0
 40
0.0
 40
0.0
 40
0.0
 40
0.499993384738592
 40
1.0
 40
1.0
 40
1.0
 40
1.0
 10
6571.842478716645
 20
5294.444387319521
 30
0.0
 10
6571.699195342861
 20
5294.361615788605
 30
0.0
 10
6571.412624803817
 20
5294.196070536525
 30
0.0
 10
6571.126050738115
 20
5294.030531855065
 30
0.0
 10
6570.982761809501
 20
5293.947761419252
 30
0.0
  0
SPLINE
  5
265
330
1F
100
AcDbEntity
  8
0
  6
Continuous
 62
     7
370
    25
100
AcDbSpline
210
0.0
220
0.0
230
1.0
 70
     8
 71
     3
 72
     9
 73
     5
 74
     0
 42
0.000000001
 43
0.00000001
 40
0.0
 40
0.0
 40
0.0
 40
0.0
 40
0.499993384738592
 40
1.0
 40
1.0
 40
1.0
 40
1.0
 10
6571.842478716645
 20
5292.856884661153
 30
0.0
 10
6571.699195342861
 20
5292.774113130238
 30
0.0
 10
6571.412624803817
 20
5292.608567878157
 30
0.0
 10
6571.126050738115
 20
5292.443029196697
 30
0.0
 10
6570.982761809501
 20
5292.360258760885
 30
0.0
  0
SPLINE
  5
266
330
1F
100
AcDbEntity
  8
0
  6
Continuous
 62
     7
370
    25
100
AcDbSpline
210
0.0
220
0.0
230
1.0
 70
     8
 71
     3
 72
     9
 73
     5
 74
     0
 42
0.000000001
 43
0.00000001
 40
0.0
 40
0.0
 40
0.0
 40
0.0
 40
0.499993384738592
 40
1.0
 40
1.0
 40
1.0
 40
1.0
 10
6571.842478716645
 20
5291.269389453367
 30
0.0
 10
6571.699195342861
 20
5291.186617922452
 30
0.0
 10
6571.412624803817
 20
5291.021072670371
 30
0.0
 10
6571.126050738115
 20
5290.855533988911
 30
0.0
 10
6570.982761809501
 20
5290.772763553098
 30
0.0
  0
SPLINE
  5
267
330
1F
100
AcDbEntity
  8
0
  6
Continuous
 62
     7
370
    25
100
AcDbSpline
210
0.0
220
0.0
230
1.0
 70
     8
 71
     3
 72
     9
 73
     5
 74
     0
 42
0.000000001
 43
0.00000001
 40
0.0
 40
0.0
 40
0.0
 40
0.0
 40
0.5040586628872319
 40
1.0
 40
1.0
 40
1.0
 40
1.0
 10
6597.410849423978
 20
5294.741509023145
 30
0.0
 10
6597.267560860715
 20
5294.824279553699
 30
0.0
 10
6596.983291243282
 20
5294.988487683918
 30
0.0
 10
6596.699024447687
 20
5295.152701160879
 30
0.0
 10
6596.558044792983
 20
5295.234141412214
 30
0.0
  0
SPLINE
  5
268
330
1F
100
AcDbEntity
  8
0
  6
Continuous
 62
     7
370
    25
100
AcDbSpline
210
0.0
220
0.0
230
1.0
 70
     8
 71
     3
 72
     9
 73
     5
 74
     0
 42
0.000000001
 43
0.00000001
 40
0.0
 40
0.0
 40
0.0
 40
0.0
 40
0.5040586628872319
 40
1.0
 40
1.0
 40
1.0
 40
1.0
 10
6597.410849423978
 20
5293.154013815359
 30
0.0
 10
6597.267560860715
 20
5293.236784345912
 30
0.0
 10
6596.983291243282
 20
5293.400992476131
 30
0.0
 10
6596.699024447687
 20
5293.565205953092
 30
0.0
 10
6596.558044792983
 20
5293.646646204427
 30
0.0
  0
SPLINE
  5
269
330
1F
100
AcDbEntity
  8
0
  6
Continuous
 62
     7
370
    25
100
AcDbSpline
210
0.0
220
0.0
230
1.0
 70
     8
 71
     3
 72
     9
 73
     5
 74
     0
 42
0.000000001
 43
0.00000001
 40
0.0
 40
0.0
 40
0.0
 40
0.0
 40
0.5040586628872319
 40
1.0
 40
1.0
 40
1.0
 40
1.0
 10
6597.410849423978
 20
5291.566511156992
 30
0.0
 10
6597.267560860715
 20
5291.649281687545
 30
0.0
 10
6596.983291243282
 20
5291.813489817764
 30
0.0
 10
6596.699024447687
 20
5291.977703294725
 30
0.0
 10
6596.558044792983
 20
5292.05914354606
 30
0.0
  0
SPLINE
  5
26A
330
1F
100
AcDbEntity
  8
0
  6
Continuous
 62
     7
370
    25
100
AcDbSpline
210
0.0
220
0.0
230
1.0
 70
     8
 71
     3
 72
     9
 73
     5
 74
     0
 42
0.000000001
 43
0.00000001
 40
0.0
 40
0.0
 40
0.0
 40
0.0
 40
0.5040586628872319
 40
1.0
 40
1.0
 40
1.0
 40
1.0
 10
6597.410849423978
 20
5289.979008498624
 30
0.0
 10
6597.267560860715
 20
5290.061779029178
 30
0.0
 10
6596.983291243282
 20
5290.225987159397
 30
0.0
 10
6596.699024447687
 20
5290.390200636358
 30
0.0
 10
6596.558044792983
 20
5290.471640887693
 30
0.0
  0
SPLINE
  5
26B
330
1F
100
AcDbEntity
  8
0
  6
Continuous
 62
     7
370
    25
100
AcDbSpline
210
0.0
220
0.0
230
1.0
 70
     8
 71
     3
 72
     9
 73
     5
 74
     0
 42
0.000000001
 43
0.00000001
 40
0.0
 40
0.0
 40
0.0
 40
0.0
 40
0.5040586628872319
 40
1.0
 40
1.0
 40
1.0
 40
1.0
 10
6597.410849423978
 20
5296.329011681512
 30
0.0
 10
6597.267560860715
 20
5296.411782212066
 30
0.0
 10
6596.983291243282
 20
5296.575990342285
 30
0.0
 10
6596.699024447687
 20
5296.740203819246
 30
0.0
 10
6596.558044792983
 20
5296.821644070581
 30
0.0
  0
SPLINE
  5
26C
330
1F
100
AcDbEntity
  8
0
  6
Continuous
 62
     7
370
    25
100
AcDbSpline
210
0.0
220
0.0
230
1.0
 70
     8
 71
     3
 72
     9
 73
     5
 74
     0
 42
0.000000001
 43
0.00000001
 40
0.0
 40
0.0
 40
0.0
 40
0.0
 40
0.499993384738592
 40
1.0
 40
1.0
 40
1.0
 40
1.0
 10
6571.842478716645
 20
5297.619385185674
 30
0.0
 10
6571.699195342861
 20
5297.536613654759
 30
0.0
 10
6571.412624803817
 20
5297.371068402678
 30
0.0
 10
6571.126050738115
 20
5297.205529721218
 30
0.0
 10
6570.982761809501
 20
5297.122759285406
 30
0.0
  0
LINE
  5
26D
330
1F
100
AcDbEntity
  8
0
  6
Continuous
 62
     7
370
    25
100
AcDbLine
 10
6597.4173053521
 20
5295.9244600563
 30
0.0
 11
6597.4173053521
 21
5296.3215983538
 31
0.0
  0
LINE
  5
26E
330
1F
100
AcDbEntity
  8
0
  6
Continuous
 62
     7
370
    25
100
AcDbLine
 10
6597.4173053521
 20
5294.3369573979
 30
0.0
 11
6597.4173053521
 21
5294.7340956955
 31
0.0
  0
LINE
  5
26F
330
1F
100
AcDbEntity
  8
0
  6
Continuous
 62
     7
370
    25
100
AcDbLine
 10
6597.4173053521
 20
5292.7494547395
 30
0.0
 11
6597.4173053521
 21
5293.1466004877
 31
0.0
  0
LINE
  5
270
330
1F
100
AcDbEntity
  8
0
  6
Continuous
 62
     7
370
    25
100
AcDbLine
 10
6597.4173053521
 20
5291.1619595317
 30
0.0
 11
6597.4173053521
 21
5291.5590978293
 31
0.0
  0
LINE
  5
271
330
1F
100
AcDbEntity
  8
0
  6
Continuous
 62
     7
370
    25
100
AcDbLine
 10
6597.4173053521
 20
5289.8941165833
 30
0.0
 11
6597.4173053521
 21
5289.9715951709
 31
0.0
  0
LINE
  5
272
330
1F
100
AcDbEntity
  8
0
  6
Continuous
 62
     7
370
    25
100
AcDbLine
 10
6570.9763058814
 20
5290.7651714115
 30
0.0
 11
6570.9763058814
 21
5290.3684726982
 31
0.0
  0
LINE
  5
273
330
1F
100
AcDbEntity
  8
0
  6
Continuous
 62
     7
370
    25
100
AcDbLine
 10
6570.9763058814
 20
5292.3526740698
 30
0.0
 11
6570.9763058814
 21
5291.9559753565
 31
0.0
  0
LINE
  5
274
330
1F
100
AcDbEntity
  8
0
  6
Continuous
 62
     7
370
    25
100
AcDbLine
 10
6570.9763058814
 20
5293.9401692776
 30
0.0
 11
6570.9763058814
 21
5293.5434705643
 31
0.0
  0
LINE
  5
275
330
1F
100
AcDbEntity
  8
0
  6
Continuous
 62
     7
370
    25
100
AcDbLine
 10
6570.9763058814
 20
5295.527671936
 30
0.0
 11
6570.9763058814
 21
5295.1309732227
 31
0.0
  0
LINE
  5
276
330
1F
100
AcDbEntity
  8
0
  6
Continuous
 62
     7
370
    25
100
AcDbLine
 10
6570.9763058814
 20
5297.1151745944
 30
0.0
 11
6570.9763058814
 21
5296.7184684305
 31
0.0
  0
SPLINE
  5
277
330
1F
100
AcDbEntity
  8
0
  6
Continuous
 62
     7
370
    25
100
AcDbSpline
210
0.0
220
0.0
230
1.0
 70
     8
 71
     3
 72
     9
 73
     5
 74
     0
 42
0.000000001
 43
0.00000001
 40
0.0
 40
0.0
 40
0.0
 40
0.0
 40
0.5040599236433814
 40
1.0
 40
1.0
 40
1.0
 40
1.0
 10
6570.982759946856
 20
5296.710816684202
 30
0.0
 10
6571.126049184874
 20
5296.628046258861
 30
0.0
 10
6571.410319429931
 20
5296.463838748088
 30
0.0
 10
6571.69458621706
 20
5296.299624648314
 30
0.0
 10
6571.835565509174
 20
5296.218184295133
 30
0.0
  0
SPLINE
  5
278
330
1F
100
AcDbEntity
  8
0
  6
Continuous
 62
     7
370
    25
100
AcDbSpline
210
0.0
220
0.0
230
1.0
 70
     8
 71
     3
 72
     9
 73
     5
 74
     0
 42
0.000000001
 43
0.00000001
 40
0.0
 40
0.0
 40
0.0
 40
0.0
 40
0.5040599236433814
 40
1.0
 40
1.0
 40
1.0
 40
1.0
 10
6570.982759946856
 20
5295.123321476415
 30
0.0
 10
6571.126049184874
 20
5295.040551051075
 30
0.0
 10
6571.410319429931
 20
5294.876343540303
 30
0.0
 10
6571.69458621706
 20
5294.712129440527
 30
0.0
 10
6571.835565509174
 20
5294.630689087347
 30
0.0
  0
SPLINE
  5
279
330
1F
100
AcDbEntity
  8
0
  6
Continuous
 62
     7
370
    25
100
AcDbSpline
210
0.0
220
0.0
230
1.0
 70
     8
 71
     3
 72
     9
 73
     5
 74
     0
 42
0.000000001
 43
0.00000001
 40
0.0
 40
0.0
 40
0.0
 40
0.0
 40
0.5040599236433814
 40
1.0
 40
1.0
 40
1.0
 40
1.0
 10
6570.982759946856
 20
5293.535818818048
 30
0.0
 10
6571.126049184874
 20
5293.453048392707
 30
0.0
 10
6571.410319429931
 20
5293.288840881934
 30
0.0
 10
6571.69458621706
 20
5293.12462678216
 30
0.0
 10
6571.835565509174
 20
5293.043186428979
 30
0.0
  0
SPLINE
  5
27A
330
1F
100
AcDbEntity
  8
0
  6
Continuous
 62
     7
370
    25
100
AcDbSpline
210
0.0
220
0.0
230
1.0
 70
     8
 71
     3
 72
     9
 73
     5
 74
     0
 42
0.000000001
 43
0.00000001
 40
0.0
 40
0.0
 40
0.0
 40
0.0
 40
0.5040599236433814
 40
1.0
 40
1.0
 40
1.0
 40
1.0
 10
6570.982759946856
 20
5291.948316159681
 30
0.0
 10
6571.126049184874
 20
5291.86554573434
 30
0.0
 10
6571.410319429931
 20
5291.701338223567
 30
0.0
 10
6571.69458621706
 20
5291.537124123793
 30
0.0
 10
6571.835565509174
 20
5291.455683770612
 30
0.0
  0
SPLINE
  5
27B
330
1F
100
AcDbEntity
  8
0
  6
Continuous
 62
     7
370
    25
100
AcDbSpline
210
0.0
220
0.0
230
1.0
 70
     8
 71
     3
 72
     9
 73
     5
 74
     0
 42
0.000000001
 43
0.00000001
 40
0.0
 40
0.0
 40
0.0
 40
0.0
 40
0.532065373546077
 40
0.9999999999999999
 40
0.9999999999999999
 40
0.9999999999999999
 40
0.9999999999999999
 10
6570.982759946856
 20
5290.360820951894
 30
0.0
 10
6571.126049329867
 20
5290.278050780385
 30
0.0
 10
6571.395357182126
 20
5290.122486867331
 30
0.0
 10
6571.664660394373
 20
5289.966914350741
 30
0.0
 10
6571.7906766924
 20
5289.894116583303
 30
0.0
  0
SPLINE
  5
27C
330
1F
100
AcDbEntity
  8
0
  6
Continuous
 62
     7
370
    25
100
AcDbSpline
210
0.0
220
0.0
230
1.0
 70
     8
 71
     3
 72
     9
 73
     5
 74
     0
 42
0.000000001
 43
0.00000001
 40
0.0
 40
0.0
 40
0.0
 40
0.0
 40
0.4999949734124561
 40
1.0
 40
1.0
 40
1.0
 40
1.0
 10
6596.551130654189
 20
5295.42044318004
 30
0.0
 10
6596.6944150421
 20
5295.503214579466
 30
0.0
 10
6596.980986698874
 20
5295.668759042563
 30
0.0
 10
6597.267560888617
 20
5295.834298512995
 30
0.0
 10
6597.410849423978
 20
5295.917069080308
 30
0.0
  0
SPLINE
  5
27D
330
1F
100
AcDbEntity
  8
0
  6
Continuous
 62
     7
370
    25
100
AcDbSpline
210
0.0
220
0.0
230
1.0
 70
     8
 71
     3
 72
     9
 73
     5
 74
     0
 42
0.000000001
 43
0.00000001
 40
0.0
 40
0.0
 40
0.0
 40
0.0
 40
0.4999949734124561
 40
1.0
 40
1.0
 40
1.0
 40
1.0
 10
6596.551130654189
 20
5293.832940521673
 30
0.0
 10
6596.6944150421
 20
5293.915711921099
 30
0.0
 10
6596.980986698874
 20
5294.081256384196
 30
0.0
 10
6597.267560888617
 20
5294.246795854628
 30
0.0
 10
6597.410849423978
 20
5294.329566421941
 30
0.0
  0
SPLINE
  5
27E
330
1F
100
AcDbEntity
  8
0
  6
Continuous
 62
     7
370
    25
100
AcDbSpline
210
0.0
220
0.0
230
1.0
 70
     8
 71
     3
 72
     9
 73
     5
 74
     0
 42
0.000000001
 43
0.00000001
 40
0.0
 40
0.0
 40
0.0
 40
0.0
 40
0.4999949734124561
 40
1.0
 40
1.0
 40
1.0
 40
1.0
 10
6596.551130654189
 20
5292.245445313886
 30
0.0
 10
6596.6944150421
 20
5292.328216713312
 30
0.0
 10
6596.980986698874
 20
5292.493761176409
 30
0.0
 10
6597.267560888617
 20
5292.659300646841
 30
0.0
 10
6597.410849423978
 20
5292.742071214155
 30
0.0
  0
SPLINE
  5
27F
330
1F
100
AcDbEntity
  8
0
  6
Continuous
 62
     7
370
    25
100
AcDbSpline
210
0.0
220
0.0
230
1.0
 70
     8
 71
     3
 72
     9
 73
     5
 74
     0
 42
0.000000001
 43
0.00000001
 40
0.0
 40
0.0
 40
0.0
 40
0.0
 40
0.4999949734124561
 40
1.0
 40
1.0
 40
1.0
 40
1.0
 10
6596.551130654189
 20
5290.657942655519
 30
0.0
 10
6596.6944150421
 20
5290.740714054945
 30
0.0
 10
6596.980986698874
 20
5290.906258518043
 30
0.0
 10
6597.267560888617
 20
5291.071797988474
 30
0.0
 10
6597.410849423978
 20
5291.154568555788
 30
0.0
  0
SPLINE
  5
280
330
1F
100
AcDbEntity
  8
0
  6
Continuous
 62
     7
370
    25
100
AcDbSpline
210
0.0
220
0.0
230
1.0
 70
     8
 71
     3
 72
     9
 73
     5
 74
     0
 42
0.000000001
 43
0.00000001
 40
0.0
 40
0.0
 40
0.0
 40
0.0
 40
0.5652340780343275
 40
1.0
 40
1.0
 40
1.0
 40
1.0
 10
6596.551130654189
 20
5297.007938387826
 30
0.0
 10
6596.694414784683
 20
5297.090712722994
 30
0.0
 10
6596.947909993237
 20
5297.237155300297
 30
0.0
 10
6597.201409600931
 20
5297.383589724638
 30
0.0
 10
6597.311622591588
 20
5297.447254422143
 30
0.0
  0
LINE
  5
281
330
1F
100
AcDbEntity
  8
0
  6
Continuous
 62
     7
370
    25
100
AcDbLine
 10
6571.5794713589
 20
5297.9536256818
 30
0.0
 11
6571.8355655092
 21
5297.8056869535
 31
0.0
  0
LINE
  5
282
330
1F
100
AcDbEntity
  8
0
  6
Continuous
 62
     7
370
    25
100
AcDbLine
 10
6571.8355655092
 20
5296.2222746639
 30
0.0
 11
6571.8355655092
 21
5296.0278964667
 31
0.0
  0
LINE
  5
283
330
1F
100
AcDbEntity
  8
0
  6
Continuous
 62
     7
370
    25
100
AcDbLine
 10
6571.8355655092
 20
5294.6347720055
 30
0.0
 11
6571.8355655092
 21
5294.4403938083
 31
0.0
  0
LINE
  5
284
330
1F
100
AcDbEntity
  8
0
  6
Continuous
 62
     7
370
    25
100
AcDbLine
 10
6571.8355655092
 20
5293.0472767977
 30
0.0
 11
6571.8355655092
 21
5292.85289115
 31
0.0
  0
LINE
  5
285
330
1F
100
AcDbEntity
  8
0
  6
Continuous
 62
     7
370
    25
100
AcDbLine
 10
6571.8355655092
 20
5291.4597741394
 30
0.0
 11
6571.8355655092
 21
5291.2653959422
 31
0.0
  0
LINE
  5
286
330
1F
100
AcDbEntity
  8
0
  6
Continuous
 62
     7
370
    25
100
AcDbLine
 10
6596.558044793
 20
5295.2302075057
 30
0.0
 11
6596.558044793
 21
5295.4244366912
 31
0.0
  0
LINE
  5
287
330
1F
100
AcDbEntity
  8
0
  6
Continuous
 62
     7
370
    25
100
AcDbLine
 10
6596.558044793
 20
5293.6427048473
 30
0.0
 11
6596.558044793
 21
5293.8369340329
 31
0.0
  0
LINE
  5
288
330
1F
100
AcDbEntity
  8
0
  6
Continuous
 62
     7
370
    25
100
AcDbLine
 10
6596.558044793
 20
5292.0552021889
 30
0.0
 11
6596.558044793
 21
5292.2494313745
 31
0.0
  0
LINE
  5
289
330
1F
100
AcDbEntity
  8
0
  6
Continuous
 62
     7
370
    25
100
AcDbLine
 10
6596.558044793
 20
5290.4677069811
 30
0.0
 11
6596.558044793
 21
5290.6619361667
 31
0.0
  0
LINE
  5
28A
330
1F
100
AcDbEntity
  8
0
  6
Continuous
 62
     7
370
    25
100
AcDbLine
 10
6596.558044793
 20
5296.8177027134
 30
0.0
 11
6596.558044793
 21
5297.011931899
 31
0.0
  0
LINE
  5
28B
330
1F
100
AcDbEntity
  8
0
  6
Continuous
 62
     7
370
    25
100
AcDbLine
 10
6571.8355655092
 20
5297.8097773222
 30
0.0
 11
6571.8355655092
 21
5297.6153916745
 31
0.0
  0
LINE
  5
28C
330
1F
100
AcDbEntity
  8
0
  6
Continuous
 62
     7
370
    25
100
AcDbLine
 10
6628.2968066054
 20
5163.0166559546
 30
0.0
 11
6628.2968066054
 21
5264.7715783743
 31
0.0
  0
LINE
  5
28D
330
1F
100
AcDbEntity
  8
0
  6
Continuous
 62
     7
370
    25
100
AcDbLine
 10
6628.2968066054
 20
5283.8941193251
 30
0.0
 11
6628.2968066054
 21
5264.7715783743
 31
0.0
  0
LINE
  5
28E
330
1F
100
AcDbEntity
  8
0
  6
Continuous
 62
     7
370
    25
100
AcDbLine
 10
6628.2968066054
 20
5283.8941193251
 30
0.0
 11
6628.6968059259
 21
5283.8941193251
 31
0.0
  0
LINE
  5
28F
330
1F
100
AcDbEntity
  8
0
  6
Continuous
 62
     7
370
    25
100
AcDbLine
 10
6628.2968066054
 20
5143.8941187291
 30
0.0
 11
6628.6968059259
 21
5143.8941187291
 31
0.0
  0
LINE
  5
290
330
1F
100
AcDbEntity
  8
0
  6
Continuous
 62
     7
370
    25
100
AcDbLine
 10
6628.2968066054
 20
5143.8941187291
 30
0.0
 11
6628.2968066054
 21
5163.0166559546
 31
0.0
  0
LINE
  5
291
330
1F
100
AcDbEntity
  8
0
  6
Continuous
 62
     7
370
    25
100
AcDbLine
 10
6558.6968056279
 20
5262.9088363676
 30
0.0
 11
6558.6968056279
 21
5268.3230503528
 31
0.0
  0
LINE
  5
292
330
1F
100
AcDbEntity
  8
0
  6
Continuous
 62
     7
370
    25
100
AcDbLine
 10
6628.2968066054
 20
5268.3230503528
 30
0.0
 11
6558.6968056279
 21
5268.3230503528
 31
0.0
  0
LINE
  5
293
330
1F
100
AcDbEntity
  8
0
  6
Continuous
 62
     7
370
    25
100
AcDbLine
 10
6628.2968066054
 20
5262.9088363676
 30
0.0
 11
6558.6968056279
 21
5262.9088363676
 31
0.0
  0
LINE
  5
294
330
1F
100
AcDbEntity
  8
0
  6
Continuous
 62
     7
370
    25
100
AcDbLine
 10
6628.2968066054
 20
5159.4651839761
 30
0.0
 11
6558.6968056279
 21
5159.4651839761
 31
0.0
  0
LINE
  5
295
330
1F
100
AcDbEntity
  8
0
  6
Continuous
 62
     7
370
    25
100
AcDbLine
 10
6628.2968066054
 20
5164.8793979613
 30
0.0
 11
6558.6968056279
 21
5164.8793979613
 31
0.0
  0
LINE
  5
296
330
1F
100
AcDbEntity
  8
0
  6
Continuous
 62
     7
370
    25
100
AcDbLine
 10
6558.6968056279
 20
5164.8793979613
 30
0.0
 11
6558.6968056279
 21
5159.4651839761
 31
0.0
  0
LINE
  5
297
330
1F
100
AcDbEntity
  8
0
  6
Continuous
 62
     7
370
    25
100
AcDbLine
 10
6628.2968066054
 20
5272.5656903414
 30
0.0
 11
6558.6968056279
 21
5272.5656903414
 31
0.0
  0
LINE
  5
298
330
1F
100
AcDbEntity
  8
0
  6
Continuous
 62
     7
370
    25
100
AcDbLine
 10
6558.6968056279
 20
5272.5656903414
 30
0.0
 11
6558.6968056279
 21
5279.3941176562
 31
0.0
  0
LINE
  5
299
330
1F
100
AcDbEntity
  8
0
  6
Continuous
 62
     7
370
    25
100
AcDbLine
 10
6628.2968066054
 20
5155.2225439875
 30
0.0
 11
6558.6968056279
 21
5155.2225439875
 31
0.0
  0
LINE
  5
29A
330
1F
100
AcDbEntity
  8
0
  6
Continuous
 62
     7
370
    25
100
AcDbLine
 10
6558.6968056279
 20
5155.2225439875
 30
0.0
 11
6558.6968056279
 21
5148.3941129474
 31
0.0
  0
LINE
  5
29B
330
1F
100
AcDbEntity
  8
0
  6
Continuous
 62
     7
370
    25
100
AcDbLine
 10
6558.6968056279
 20
5262.9088363676
 30
0.0
 11
6558.6968056279
 21
5164.8793979613
 31
0.0
  0
LINE
  5
29C
330
1F
100
AcDbEntity
  8
0
  6
Continuous
 62
     7
370
    25
100
AcDbLine
 10
6558.6968056279
 20
5268.3230503528
 30
0.0
 11
6558.6968056279
 21
5272.5656903414
 31
0.0
  0
LINE
  5
29D
330
1F
100
AcDbEntity
  8
0
  6
Continuous
 62
     7
370
    25
100
AcDbLine
 10
6558.6968056279
 20
5159.4651839761
 30
0.0
 11
6558.6968056279
 21
5155.2225439875
 31
0.0
  0
LINE
  5
29E
330
1F
100
AcDbEntity
  8
0
  6
Continuous
 62
     7
370
    25
100
AcDbLine
 10
6628.2968066054
 20
5148.3941129474
 30
0.0
 11
6558.6968056279
 21
5148.3941129474
 31
0.0
  0
LINE
  5
29F
330
1F
100
AcDbEntity
  8
0
  6
Continuous
 62
     7
370
    25
100
AcDbLine
 10
6631.284504326
 20
5296.115649405
 30
0.0
 11
6631.284504326
 21
5268.3941177158
 31
0.0
  0
LINE
  5
2A0
330
1F
100
AcDbEntity
  8
0
  6
Continuous
 62
     7
370
    25
100
AcDbLine
 10
6631.284504326
 20
5296.115649405
 30
0.0
 11
6631.696804555
 21
5296.1728549628
 31
0.0
  0
LINE
  5
2A1
330
1F
100
AcDbEntity
  8
0
  6
Continuous
 62
     7
370
    25
100
AcDbLine
 10
6631.284504326
 20
5131.0402653245
 30
0.0
 11
6631.696804555
 21
5130.9823072581
 31
0.0
  0
LINE
  5
2A2
330
1F
100
AcDbEntity
  8
0
  6
Continuous
 62
     7
370
    25
100
AcDbLine
 10
6631.284504326
 20
5158.3941183118
 30
0.0
 11
6631.284504326
 21
5131.0402653245
 31
0.0
  0
LINE
  5
2A3
330
1F
100
AcDbEntity
  8
0
  6
Continuous
 62
     7
370
    25
100
AcDbLine
 10
6631.284504326
 20
5268.3941177158
 30
0.0
 11
6631.284504326
 21
5158.3941183118
 31
0.0
  0
ARC
  5
2A4
330
1F
100
AcDbEntity
  8
0
  6
Continuous
 62
     7
370
    25
100
AcDbCircle
 10
6631.6968056279
 20
5293.1441166548
 30
0.0
 40
3.000000000000909
100
AcDbArc
 50
97.8994336573
 51
180.0
  0
SPLINE
  5
2A5
330
1F
100
AcDbEntity
  8
0
  6
Continuous
 62
     7
370
    25
100
AcDbSpline
210
0.0
220
0.0
230
1.0
 70
     8
 71
     3
 72
    13
 73
     9
 74
     0
 42
0.000000001
 43
0.00000001
 40
0.0
 40
0.0
 40
0.0
 40
0.0
 40
0.0521357377170676
 40
0.2891307355040659
 40
0.5249051301680568
 40
0.6746390332700494
 40
0.901837509438975
 40
1.0
 40
1.0
 40
1.0
 40
1.0
 10
6628.727703483674
 20
5134.134096565679
 30
0.0
 10
6628.716555131396
 20
5134.058260972955
 30
0.0
 10
6628.654729377415
 20
5133.63769723565
 30
0.0
 10
6628.887734406957
 20
5132.866877038849
 30
0.0
 10
6629.359739845358
 20
5132.077539605925
 30
0.0
 10
6630.036054218574
 20
5131.475076451105
 30
0.0
 10
6630.673339644717
 20
5131.153864804912
 30
0.0
 10
6631.142851139528
 20
5131.066594935641
 30
0.0
 10
6631.284504325959
 20
5131.040265324548
 30
0.0
  0
LINE
  5
2A6
330
1F
100
AcDbEntity
  8
0
  6
Continuous
 62
     7
370
    25
100
AcDbLine
 10
6631.696804555
 20
5158.3941183118
 30
0.0
 11
6631.696804555
 21
5128.3941171197
 31
0.0
  0
LINE
  5
2A7
330
1F
100
AcDbEntity
  8
0
  6
Continuous
 62
     7
370
    25
100
AcDbLine
 10
6637.6968092638
 20
5158.3941183118
 30
0.0
 11
6631.696804555
 21
5158.3941183118
 31
0.0
  0
LINE
  5
2A8
330
1F
100
AcDbEntity
  8
0
  6
Continuous
 62
     7
370
    25
100
AcDbLine
 10
6637.6968092638
 20
5128.3941171197
 30
0.0
 11
6637.6968092638
 21
5158.3941183118
 31
0.0
  0
LINE
  5
2A9
330
1F
100
AcDbEntity
  8
0
  6
Continuous
 62
     7
370
    25
100
AcDbLine
 10
6637.6968092638
 20
5128.3941171197
 30
0.0
 11
6631.696804555
 21
5128.3941171197
 31
0.0
  0
LINE
  5
2AA
330
1F
100
AcDbEntity
  8
0
  6
Continuous
 62
     7
370
    25
100
AcDbLine
 10
6637.6968092638
 20
5268.3941177158
 30
0.0
 11
6631.696804555
 21
5268.3941177158
 31
0.0
  0
LINE
  5
2AB
330
1F
100
AcDbEntity
  8
0
  6
Continuous
 62
     7
370
    25
100
AcDbLine
 10
6637.6968092638
 20
5158.3941183118
 30
0.0
 11
6637.6968092638
 21
5268.3941177158
 31
0.0
  0
LINE
  5
2AC
330
1F
100
AcDbEntity
  8
0
  6
Continuous
 62
     7
370
    25
100
AcDbLine
 10
6631.696804555
 20
5268.3941177158
 30
0.0
 11
6631.696804555
 21
5158.3941183118
 31
0.0
  0
LINE
  5
2AD
330
1F
100
AcDbEntity
  8
0
  6
Continuous
 62
     7
370
    25
100
AcDbLine
 10
6637.6968092638
 20
5158.3941183118
 30
0.0
 11
6639.6968058663
 21
5158.3941183118
 31
0.0
  0
LINE
  5
2AE
330
1F
100
AcDbEntity
  8
0
  6
Continuous
 62
     7
370
    25
100
AcDbLine
 10
6639.6968058663
 20
5158.3941183118
 30
0.0
 11
6639.6968058663
 21
5130.3941137223
 31
0.0
  0
ARC
  5
2AF
330
1F
100
AcDbEntity
  8
0
  6
Continuous
 62
     7
370
    25
100
AcDbCircle
 10
6637.6968056279
 20
5130.3941166548
 30
0.0
 40
2.0
100
AcDbArc
 50
270.0
 51
0.0
  0
LINE
  5
2B0
330
1F
100
AcDbEntity
  8
0
  6
Continuous
 62
     7
370
    25
100
AcDbLine
 10
6637.6968092638
 20
5298.3941189079
 30
0.0
 11
6631.696804555
 21
5298.3941189079
 31
0.0
  0
LINE
  5
2B1
330
1F
100
AcDbEntity
  8
0
  6
Continuous
 62
     7
370
    25
100
AcDbLine
 10
6637.6968092638
 20
5268.3941177158
 30
0.0
 11
6637.6968092638
 21
5298.3941189079
 31
0.0
  0
LINE
  5
2B2
330
1F
100
AcDbEntity
  8
0
  6
Continuous
 62
     7
370
    25
100
AcDbLine
 10
6631.696804555
 20
5298.3941189079
 30
0.0
 11
6631.696804555
 21
5268.3941177158
 31
0.0
  0
LINE
  5
2B3
330
1F
100
AcDbEntity
  8
0
  6
Continuous
 62
     7
370
    25
100
AcDbLine
 10
6637.6968092638
 20
5268.3941177158
 30
0.0
 11
6639.6968058663
 21
5268.3941177158
 31
0.0
  0
LINE
  5
2B4
330
1F
100
AcDbEntity
  8
0
  6
Continuous
 62
     7
370
    25
100
AcDbLine
 10
6639.6968058663
 20
5268.3941177158
 30
0.0
 11
6639.6968058663
 21
5158.3941183118
 31
0.0
  0
LINE
  5
2B5
330
1F
100
AcDbEntity
  8
0
  6
Continuous
 62
     7
370
    25
100
AcDbLine
 10
6639.6968058663
 20
5296.3941148548
 30
0.0
 11
6639.6968058663
 21
5268.3941177158
 31
0.0
  0
ARC
  5
2B6
330
1F
100
AcDbEntity
  8
0
  6
Continuous
 62
     7
370
    25
100
AcDbCircle
 10
6637.6968056279
 20
5296.3941166548
 30
0.0
 40
2.000000000000909
100
AcDbArc
 50
0.0
 51
90.0
  0
LINE
  5
2B7
330
1F
100
AcDbEntity
  8
0
  6
Continuous
 62
     7
370
    25
100
AcDbLine
 10
6641.6968024689
 20
5283.8941193251
 30
0.0
 11
6641.6968024689
 21
5142.8941167025
 31
0.0
  0
LINE
  5
2B8
330
1F
100
AcDbEntity
  8
0
  6
Continuous
 62
     7
370
    25
100
AcDbLine
 10
6613.9968066829
 20
5281.094116631
 30
0.0
 11
6602.3968040365
 21
5281.094116631
 31
0.0
  0
LINE
  5
2B9
330
1F
100
AcDbEntity
  8
0
  6
Continuous
 62
     7
370
    25
100
AcDbLine
 10
6587.5241841542
 20
5137.8941140203
 30
0.0
 11
6587.5241841542
 21
5148.3941129474
 31
0.0
  0
LINE
  5
2BA
330
1F
100
AcDbEntity
  8
0
  6
Continuous
 62
     7
370
    25
100
AcDbLine
 10
6598.4703033584
 20
5137.8941140203
 30
0.0
 11
6598.4703033584
 21
5148.3941129474
 31
0.0
  0
LINE
  5
2BB
330
1F
100
AcDbEntity
  8
0
  6
Continuous
 62
     7
370
    25
100
AcDbLine
 10
6598.4703033584
 20
5137.8941140203
 30
0.0
 11
6594.6652247923
 21
5137.8941140203
 31
0.0
  0
LINE
  5
2BC
330
1F
100
AcDbEntity
  8
0
  6
Continuous
 62
     7
370
    25
100
AcDbLine
 10
6592.5453893262
 20
5137.8941140203
 30
0.0
 11
6587.5241841542
 21
5137.8941140203
 31
0.0
  0
SPLINE
  5
2BD
330
1F
100
AcDbEntity
  8
0
  6
Continuous
 62
     7
370
    25
100
AcDbSpline
210
0.0
220
0.0
230
1.0
 70
     8
 71
     3
 72
    27
 73
    23
 74
     0
 42
0.000000001
 43
0.00000001
 40
0.0
 40
0.0
 40
0.0
 40
0.0
 40
0.0186329730262469
 40
0.0726975631327856
 40
0.1283383627595617
 40
0.1821894085007338
 40
0.2376213537678596
 40
0.2911610639450011
 40
0.3462539210868815
 40
0.3997465673604385
 40
0.4548200515951381
 40
0.5078349150230433
 40
0.5623872217773884
 40
0.6154032135295849
 40
0.6699812612867377
 40
0.7225885743133099
 40
0.7767286998386584
 40
0.8292186910416991
 40
0.8832411717316363
 40
0.9354930777202847
 40
0.9892779488072033
 40
1.0
 40
1.0
 40
1.0
 40
1.0
 10
6597.088328691098
 20
5130.107594194845
 30
0.0
 10
6597.096955745337
 20
5130.104461428808
 30
0.0
 10
6597.13061466919
 20
5130.092238770814
 30
0.0
 10
6596.810780979251
 20
5130.071545817461
 30
0.0
 10
6596.141139174877
 20
5130.045779054211
 30
0.0
 10
6595.096534665589
 20
5130.017951290416
 30
0.0
 10
6593.763471540783
 20
5129.990197568566
 30
0.0
 10
6592.147633231342
 20
5129.962405527847
 30
0.0
 10
6590.329120001478
 20
5129.936708105334
 30
0.0
 10
6588.32092895961
 20
5129.909807247147
 30
0.0
 10
6586.223552903884
 20
5129.882089566686
 30
0.0
 10
6584.060107304227
 20
5129.854108757466
 30
0.0
 10
6581.931523086698
 20
5129.82701943241
 30
0.0
 10
6579.852305157385
 20
5129.801321039578
 30
0.0
 10
6577.925745157369
 20
5129.774014578495
 30
0.0
 10
6576.171583984785
 20
5129.746014097767
 30
0.0
 10
6574.670156815198
 20
5129.718364657176
 30
0.0
 10
6573.434002041601
 20
5129.691774076246
 30
0.0
 10
6572.512160179254
 20
5129.665833826863
 30
0.0
 10
6571.952967330288
 20
5129.637984090381
 30
0.0
 10
6571.72000265055
 20
5129.617337418455
 30
0.0
 10
6571.78366641002
 20
5129.606222073512
 30
0.0
 10
6571.794248314473
 20
5129.604374530748
 30
0.0
  0
LINE
  5
2BE
330
1F
100
AcDbEntity
  8
0
  6
Continuous
 62
     7
370
    25
100
AcDbLine
 10
6570.9763058814
 20
5130.3941137223
 30
0.0
 11
6571.2757074627
 21
5130.3941137223
 31
0.0
  0
SPLINE
  5
2BF
330
1F
100
AcDbEntity
  8
0
  6
Continuous
 62
     7
370
    25
100
AcDbSpline
210
0.0
220
0.0
230
1.0
 70
     8
 71
     3
 72
     9
 73
     5
 74
     0
 42
0.000000001
 43
0.00000001
 40
0.0
 40
0.0
 40
0.0
 40
0.0
 40
0.3756037498469016
 40
1.0
 40
1.0
 40
1.0
 40
1.0
 10
6571.133623959396
 20
5130.26367640777
 30
0.0
 10
6571.113743884305
 20
5130.279988925344
 30
0.0
 10
6571.060815565302
 20
5130.323419049725
 30
0.0
 10
6571.193105883862
 20
5130.366939633172
 30
0.0
 10
6571.275707462702
 20
5130.39411372228
 30
0.0
  0
LINE
  5
2C0
330
1F
100
AcDbEntity
  8
0
  6
Continuous
 62
     7
370
    25
100
AcDbLine
 10
6595.9173060375
 20
5128.894118133
 30
0.0
 11
6572.476305196
 21
5128.894118133
 31
0.0
  0
SPLINE
  5
2C1
330
1F
100
AcDbEntity
  8
0
  6
Continuous
 62
     7
370
    25
100
AcDbSpline
210
0.0
220
0.0
230
1.0
 70
     8
 71
     3
 72
    22
 73
    18
 74
     0
 42
0.000000001
 43
0.00000001
 40
0.0
 40
0.0
 40
0.0
 40
0.0
 40
0.0370073786796649
 40
0.1087930713513832
 40
0.1790679641477071
 40
0.2497933652801058
 40
0.3216890301812584
 40
0.3929947985389314
 40
0.4629435704780015
 40
0.5344013248646479
 40
0.6062529800243704
 40
0.6767446245765338
 40
0.7472362825180602
 40
0.8190878896198821
 40
0.8905456649455531
 40
0.960494446185541
 40
0.9999999999999999
 40
0.9999999999999999
 40
0.9999999999999999
 40
0.9999999999999999
 10
6571.911925578389
 20
5129.842562141851
 30
0.0
 10
6571.897225895878
 20
5129.852357559306
 30
0.0
 10
6571.854012254025
 20
5129.88115380449
 30
0.0
 10
6572.444623756776
 20
5129.929912217969
 30
0.0
 10
6573.601230215979
 20
5129.983343862912
 30
0.0
 10
6575.298935251466
 20
5130.038332958457
 30
0.0
 10
6577.432655471877
 20
5130.096253935632
 30
0.0
 10
6579.891555640927
 20
5130.152936318925
 30
0.0
 10
6582.551137929792
 20
5130.205400935699
 30
0.0
 10
6585.298572628733
 20
5130.262479960898
 30
0.0
 10
6587.998978767661
 20
5130.320363033938
 30
0.0
 10
6590.501971727339
 20
5130.374584356034
 30
0.0
 10
6592.69958288863
 20
5130.428814107308
 30
0.0
 10
6594.500787102494
 20
5130.486671345417
 30
0.0
 10
6595.763498668247
 20
5130.54384454072
 30
0.0
 10
6596.44978438815
 20
5130.588171693431
 30
0.0
 10
6596.46858129724
 20
5130.617285597391
 30
0.0
 10
6596.475365700099
 20
5130.627793732122
 30
0.0
  0
SPLINE
  5
2C2
330
1F
100
AcDbEntity
  8
0
  6
Continuous
 62
     7
370
    25
100
AcDbSpline
210
0.0
220
0.0
230
1.0
 70
     8
 71
     3
 72
    22
 73
    18
 74
     0
 42
0.000000001
 43
0.00000001
 40
0.0
 40
0.0
 40
0.0
 40
0.0
 40
0.0370073825588174
 40
0.1087930749256217
 40
0.1790679635361858
 40
0.2497933643681742
 40
0.3216890330349976
 40
0.3929948010897951
 40
0.4629435727317537
 40
0.5344013227933563
 40
0.6062529817140755
 40
0.6767446259668215
 40
0.7472362796972103
 40
0.819087890560032
 40
0.8905456615606602
 40
0.9604944463533432
 40
1.0
 40
1.0
 40
1.0
 40
1.0
 10
6571.911925578389
 20
5131.430057349638
 30
0.0
 10
6571.897225893814
 20
5131.439855636487
 30
0.0
 10
6571.854012248999
 20
5131.468660314947
 30
0.0
 10
6572.444623718337
 20
5131.517416140715
 30
0.0
 10
6573.601230255625
 20
5131.570837414828
 30
0.0
 10
6575.298935325462
 20
5131.625826072809
 30
0.0
 10
6577.432655379506
 20
5131.683759372191
 30
0.0
 10
6579.891555670112
 20
5131.740437420375
 30
0.0
 10
6582.551137807855
 20
5131.792907072501
 30
0.0
 10
6585.298572841193
 20
5131.849969922222
 30
0.0
 10
6587.998978663321
 20
5131.907868093677
 30
0.0
 10
6590.501971647313
 20
5131.962089784436
 30
0.0
 10
6592.699583046619
 20
5132.016303171255
 30
0.0
 10
6594.500786966007
 20
5132.074180969961
 30
0.0
 10
6595.763498761328
 20
5132.131333200231
 30
0.0
 10
6596.44978437275
 20
5132.175676127122
 30
0.0
 10
6596.468581293332
 20
5132.204788726862
 30
0.0
 10
6596.475365700099
 20
5132.215296390489
 30
0.0
  0
SPLINE
  5
2C3
330
1F
100
AcDbEntity
  8
0
  6
Continuous
 62
     7
370
    25
100
AcDbSpline
210
0.0
220
0.0
230
1.0
 70
     8
 71
     3
 72
    22
 73
    18
 74
     0
 42
0.000000001
 43
0.00000001
 40
0.0
 40
0.0
 40
0.0
 40
0.0
 40
0.0370073827063625
 40
0.1087930753593701
 40
0.1790679642501139
 40
0.2497933653640783
 40
0.3216890343175433
 40
0.3929947986524734
 40
0.4629435705733117
 40
0.5344013249413329
 40
0.6062529800823274
 40
0.6767446246161175
 40
0.7472362825392703
 40
0.819087893688558
 40
0.8905456649740822
 40
0.9604944461958381
 40
1.0
 40
1.0
 40
1.0
 40
1.0
 10
6571.911925578389
 20
5133.017560008005
 30
0.0
 10
6571.897225893787
 20
5133.027358296294
 30
0.0
 10
6571.854012248892
 20
5133.056162978986
 30
0.0
 10
6572.444623719263
 20
5133.104918750281
 30
0.0
 10
6573.6012302523
 20
5133.158340248623
 30
0.0
 10
6575.298935338039
 20
5133.213328067519
 30
0.0
 10
6577.432655291943
 20
5133.271264542553
 30
0.0
 10
6579.891555749281
 20
5133.327930863184
 30
0.0
 10
6582.55113791412
 20
5133.380399690054
 30
0.0
 10
6585.298572632272
 20
5133.437477646993
 30
0.0
 10
6587.998978769442
 20
5133.495360717655
 30
0.0
 10
6590.501971716987
 20
5133.549583108051
 30
0.0
 10
6592.69958297064
 20
5133.603808579296
 30
0.0
 10
6594.500786980714
 20
5133.661682143422
 30
0.0
 10
6595.763498723129
 20
5133.718838984319
 30
0.0
 10
6596.44978438312
 20
5133.763169994032
 30
0.0
 10
6596.468581295907
 20
5133.792283578765
 30
0.0
 10
6596.475365700099
 20
5133.802791598276
 30
0.0
  0
SPLINE
  5
2C4
330
1F
100
AcDbEntity
  8
0
  6
Continuous
 62
     7
370
    25
100
AcDbSpline
210
0.0
220
0.0
230
1.0
 70
     8
 71
     3
 72
    22
 73
    18
 74
     0
 42
0.000000001
 43
0.00000001
 40
0.0
 40
0.0
 40
0.0
 40
0.0
 40
0.0370073786747515
 40
0.108793071336939
 40
0.1790679641239327
 40
0.249793361308657
 40
0.3216890302713161
 40
0.3929947986195219
 40
0.4629435705493051
 40
0.5344013249264643
 40
0.6062529800766472
 40
0.6767446246194517
 40
0.747236282551619
 40
0.8190878896439014
 40
0.8905456649600852
 40
0.9604944461907862
 40
1.0
 40
1.0
 40
1.0
 40
1.0
 10
6571.911925578389
 20
5134.605062666372
 30
0.0
 10
6571.897225895476
 20
5134.61485811183
 30
0.0
 10
6571.854012252443
 20
5134.643654439335
 30
0.0
 10
6572.444623770396
 20
5134.69241179333
 30
0.0
 10
6573.601230145608
 20
5134.745847798494
 30
0.0
 10
6575.298935401254
 20
5134.80082057392
 30
0.0
 10
6577.43265537447
 20
5134.858757911962
 30
0.0
 10
6579.891555654101
 20
5134.915435941648
 30
0.0
 10
6582.551137926208
 20
5134.967901705624
 30
0.0
 10
6585.29857262971
 20
5135.024980418622
 30
0.0
 10
6587.998978767405
 20
5135.08286357602
 30
0.0
 10
6590.501971727407
 20
5135.13708487589
 30
0.0
 10
6592.699582888612
 20
5135.191314633105
 30
0.0
 10
6594.500787102499
 20
5135.249171869595
 30
0.0
 10
6595.763498668245
 20
5135.306345065332
 30
0.0
 10
6596.44978438815
 20
5135.35067221794
 30
0.0
 10
6596.46858129724
 20
5135.379786121909
 30
0.0
 10
6596.475365700099
 20
5135.390294256643
 30
0.0
  0
SPLINE
  5
2C5
330
1F
100
AcDbEntity
  8
0
  6
Continuous
 62
     7
370
    25
100
AcDbSpline
210
0.0
220
0.0
230
1.0
 70
     8
 71
     3
 72
    22
 73
    18
 74
     0
 42
0.000000001
 43
0.00000001
 40
0.0
 40
0.0
 40
0.0
 40
0.0
 40
0.0370073825530862
 40
0.1087930749087736
 40
0.1790679635084546
 40
0.2497933643294902
 40
0.3216890329851795
 40
0.3929948010289343
 40
0.4629435726600604
 40
0.5344013227105967
 40
0.6062529816201887
 40
0.6767446258620181
 40
0.7472362795814902
 40
0.8190878904331846
 40
0.8905456614227466
 40
0.9604944423547904
 40
1.0
 40
1.0
 40
1.0
 40
1.0
 10
6571.911925578389
 20
5136.192557874158
 30
0.0
 10
6571.897225893814
 20
5136.202356161008
 30
0.0
 10
6571.854012248999
 20
5136.231160839468
 30
0.0
 10
6572.444623718337
 20
5136.279916665234
 30
0.0
 10
6573.601230255625
 20
5136.333337939356
 30
0.0
 10
6575.298935325462
 20
5136.388326597301
 30
0.0
 10
6577.432655379506
 20
5136.446259896826
 30
0.0
 10
6579.891555670113
 20
5136.50293794448
 30
0.0
 10
6582.551137807851
 20
5136.555407598557
 30
0.0
 10
6585.29857284121
 20
5136.612470440859
 30
0.0
 10
6587.99897866326
 20
5136.670368640102
 30
0.0
 10
6590.501971647539
 20
5136.724590228954
 30
0.0
 10
6592.699583045771
 20
5136.778803996974
 30
0.0
 10
6594.500786969236
 20
5136.836680348839
 30
0.0
 10
6595.763498726667
 20
5136.893837932668
 30
0.0
 10
6596.449784396331
 20
5136.938164125465
 30
0.0
 10
6596.468581299087
 20
5136.967285928552
 30
0.0
 10
6596.475365700099
 20
5136.97779691501
 30
0.0
  0
SPLINE
  5
2C6
330
1F
100
AcDbEntity
  8
0
  6
Continuous
 62
     7
370
    25
100
AcDbSpline
210
0.0
220
0.0
230
1.0
 70
     8
 71
     3
 72
    10
 73
     6
 74
     0
 42
0.000000001
 43
0.00000001
 40
0.0
 40
0.0
 40
0.0
 40
0.0
 40
0.2578235579418863
 40
0.7579412209794864
 40
1.0
 40
1.0
 40
1.0
 40
1.0
 10
6571.911925578389
 20
5137.780060532526
 30
0.0
 10
6571.897541397253
 20
5137.789858991154
 30
0.0
 10
6571.855255254357
 20
5137.818664177752
 30
0.0
 10
6572.319110126219
 20
5137.857655800054
 30
0.0
 10
6572.857884981267
 20
5137.885147634942
 30
0.0
 10
6573.03360489932
 20
5137.894114020303
 30
0.0
  0
SPLINE
  5
2C7
330
1F
100
AcDbEntity
  8
0
  6
Continuous
 62
     7
370
    25
100
AcDbSpline
210
0.0
220
0.0
230
1.0
 70
     8
 71
     3
 72
    21
 73
    17
 74
     0
 42
0.000000001
 43
0.00000001
 40
0.0
 40
0.0
 40
0.0
 40
0.0
 40
0.0420097689083259
 40
0.116590927204022
 40
0.191650137941741
 40
0.2679511877168649
 40
0.3436262738249102
 40
0.4178613838737372
 40
0.4936977354863181
 40
0.5699520682238566
 40
0.6447632182780629
 40
0.7195744026808102
 40
0.79582876683822
 40
0.8716651110635383
 40
0.9459002166951617
 40
1.0
 40
1.0
 40
1.0
 40
1.0
 10
6571.275707462702
 20
5130.39411372228
 30
0.0
 10
6571.409755659529
 20
5130.404705172528
 30
0.0
 10
6571.781783498867
 20
5130.434099930866
 30
0.0
 10
6572.875658859216
 20
5130.479429945399
 30
0.0
 10
6574.67742318138
 20
5130.534420726809
 30
0.0
 10
6576.963266295553
 20
5130.592353531621
 30
0.0
 10
6579.592081312097
 20
5130.649031787461
 30
0.0
 10
6582.436798527345
 20
5130.701501212094
 30
0.0
 10
6585.375136495775
 20
5130.758564182093
 30
0.0
 10
6588.263309343101
 20
5130.816462297315
 30
0.0
 10
6590.940165050337
 20
5130.870684484607
 30
0.0
 10
6593.290976546358
 20
5130.92489570866
 30
0.0
 10
6595.215718855953
 20
5130.982781541489
 30
0.0
 10
6596.572407658815
 20
5131.039904222353
 30
0.0
 10
6597.332304975837
 20
5131.087157176338
 30
0.0
 10
6597.3456204453
 20
5131.119370828974
 30
0.0
 10
6597.351233603332
 20
5131.132950547174
 30
0.0
  0
SPLINE
  5
2C8
330
1F
100
AcDbEntity
  8
0
  6
Continuous
 62
     7
370
    25
100
AcDbSpline
210
0.0
220
0.0
230
1.0
 70
     8
 71
     3
 72
    23
 73
    19
 74
     0
 42
0.000000001
 43
0.00000001
 40
0.0
 40
0.0
 40
0.0
 40
0.0
 40
0.0043342930450613
 40
0.0678756607296803
 40
0.1070339888228572
 40
0.1765529017329737
 40
0.2465174189598225
 40
0.3176394845790877
 40
0.388178070765574
 40
0.4573744236821675
 40
0.5280633363117572
 40
0.5991418523264698
 40
0.6688751461525614
 40
0.7386084753789105
 40
0.8096870206808514
 40
0.8803759264245942
 40
0.9495722752238046
 40
1.0
 40
1.0
 40
1.0
 40
1.0
 10
6570.994865277681
 20
5131.926549139455
 30
0.0
 10
6570.988715647872
 20
5131.927690347018
 30
0.0
 10
6570.892411548851
 20
5131.945561823757
 30
0.0
 10
6571.17502921112
 20
5131.975152947537
 30
0.0
 10
6571.78876311266
 20
5132.021549181675
 30
0.0
 10
6572.873350551463
 20
5132.066950437368
 30
0.0
 10
6574.678054998981
 20
5132.121917887975
 30
0.0
 10
6576.96309720426
 20
5132.179859996338
 30
0.0
 10
6579.592125526819
 20
5132.236524887972
 30
0.0
 10
6582.436786614647
 20
5132.288993937497
 30
0.0
 10
6585.375139570675
 20
5132.346071820142
 30
0.0
 10
6588.263308580076
 20
5132.403955159336
 30
0.0
 10
6590.94016535354
 20
5132.458176959743
 30
0.0
 10
6593.290976336909
 20
5132.512404303521
 30
0.0
 10
6595.215718997191
 20
5132.570270591708
 30
0.0
 10
6596.572407600905
 20
5132.627410452656
 30
0.0
 10
6597.332304983369
 20
5132.674659223483
 30
0.0
 10
6597.345620447534
 20
5132.706873306087
 30
0.0
 10
6597.351233603332
 20
5132.720453205541
 30
0.0
  0
SPLINE
  5
2C9
330
1F
100
AcDbEntity
  8
0
  6
Continuous
 62
     7
370
    25
100
AcDbSpline
210
0.0
220
0.0
230
1.0
 70
     8
 71
     3
 72
    23
 73
    19
 74
     0
 42
0.000000001
 43
0.00000001
 40
0.0
 40
0.0
 40
0.0
 40
0.0
 40
0.0043342930452037
 40
0.0678756607319113
 40
0.1070339853359037
 40
0.1765529016102986
 40
0.2465174154333237
 40
0.3176394810549266
 40
0.388178070706829
 40
0.4573744236256969
 40
0.528063332779492
 40
0.5991418523132942
 40
0.6688751461416778
 40
0.7386084753703189
 40
0.8096870206745961
 40
0.8803759264206622
 40
0.9495722752221472
 40
1.0
 40
1.0
 40
1.0
 40
1.0
 10
6570.994865277681
 20
5133.514051797823
 30
0.0
 10
6570.9887156479
 20
5133.51519300083
 30
0.0
 10
6570.892411549326
 20
5133.533064406226
 30
0.0
 10
6571.175029169996
 20
5133.562660701898
 30
0.0
 10
6571.788763185658
 20
5133.609037769172
 30
0.0
 10
6572.873350441871
 20
5133.654460204415
 30
0.0
 10
6574.678055061931
 20
5133.70940972663
 30
0.0
 10
6576.963097275973
 20
5133.767353774562
 30
0.0
 10
6579.592125455642
 20
5133.824029015367
 30
0.0
 10
6582.436786513803
 20
5133.876499316262
 30
0.0
 10
6585.375139769128
 20
5133.93356173612
 30
0.0
 10
6588.263308469988
 20
5133.99146116661
 30
0.0
 10
6590.940165370906
 20
5134.045678728337
 30
0.0
 10
6593.290976332154
 20
5134.099907205491
 30
0.0
 10
6595.215718998469
 20
5134.157773184604
 30
0.0
 10
6596.572407600568
 20
5134.214913128214
 30
0.0
 10
6597.332304983427
 20
5134.26216187891
 30
0.0
 10
6597.345620447551
 20
5134.294375963582
 30
0.0
 10
6597.351233603332
 20
5134.307955863908
 30
0.0
  0
SPLINE
  5
2CA
330
1F
100
AcDbEntity
  8
0
  6
Continuous
 62
     7
370
    25
100
AcDbSpline
210
0.0
220
0.0
230
1.0
 70
     8
 71
     3
 72
    23
 73
    19
 74
     0
 42
0.000000001
 43
0.00000001
 40
0.0
 40
0.0
 40
0.0
 40
0.0
 40
0.0043342930443798
 40
0.067875660719009
 40
0.1070339888060295
 40
0.1765529017052164
 40
0.2465174189210655
 40
0.317639484529149
 40
0.3881780741676429
 40
0.4573744270733575
 40
0.5280633362137156
 40
0.5991418557340067
 40
0.6688751461659868
 40
0.7386084753813725
 40
0.8096870241888903
 40
0.8803759264434011
 40
0.9495722752317327
 40
1.0
 40
1.0
 40
1.0
 40
1.0
 10
6570.994865277681
 20
5135.101547005609
 30
0.0
 10
6570.988715647872
 20
5135.10268821318
 30
0.0
 10
6570.892411548848
 20
5135.120559690044
 30
0.0
 10
6571.175029211278
 20
5135.150150804769
 30
0.0
 10
6571.788763112223
 20
5135.196547072457
 30
0.0
 10
6572.873350554609
 20
5135.241948126016
 30
0.0
 10
6574.678054987283
 20
5135.296916414201
 30
0.0
 10
6576.963097285891
 20
5135.354855367078
 30
0.0
 10
6579.592125453828
 20
5135.411531907339
 30
0.0
 10
6582.436786511445
 20
5135.464002075667
 30
0.0
 10
6585.375139780735
 20
5135.5210637341
 30
0.0
 10
6588.263308379903
 20
5135.578966354505
 30
0.0
 10
6590.940165446936
 20
5135.633172123472
 30
0.0
 10
6593.2909763957
 20
5135.68739975987
 30
0.0
 10
6595.21571888817
 20
5135.745281117906
 30
0.0
 10
6596.572407650357
 20
5135.802404995815
 30
0.0
 10
6597.332304977285
 20
5135.849657658271
 30
0.0
 10
6597.345620445729
 20
5135.881871340865
 30
0.0
 10
6597.351233603332
 20
5135.895451071695
 30
0.0
  0
SPLINE
  5
2CB
330
1F
100
AcDbEntity
  8
0
  6
Continuous
 62
     7
370
    25
100
AcDbSpline
210
0.0
220
0.0
230
1.0
 70
     8
 71
     3
 72
    23
 73
    19
 74
     0
 42
0.000000001
 43
0.00000001
 40
0.0
 40
0.0
 40
0.0
 40
0.0
 40
0.004334293045312
 40
0.0678756607336075
 40
0.1070339888290501
 40
0.1765529017431889
 40
0.2465174189740858
 40
0.3176394810765092
 40
0.3881780707301745
 40
0.4573744236507716
 40
0.5280633362844513
 40
0.5991418523032764
 40
0.6688751461334028
 40
0.7386084753637866
 40
0.80968702066984
 40
0.8803759264176727
 40
0.9495722752208869
 40
1.0
 40
1.0
 40
1.0
 40
1.0
 10
6570.994865277681
 20
5136.689049663976
 30
0.0
 10
6570.988715647871
 20
5136.690190871581
 30
0.0
 10
6570.892411548839
 20
5136.708062348965
 30
0.0
 10
6571.175029211879
 20
5136.737653425892
 30
0.0
 10
6571.788763110565
 20
5136.784049833634
 30
0.0
 10
6572.87335056656
 20
5136.829450043389
 30
0.0
 10
6574.678054912669
 20
5136.884421827103
 30
0.0
 10
6576.963097374013
 20
5136.942347602536
 30
0.0
 10
6579.592125425062
 20
5136.999028785295
 30
0.0
 10
6582.436786629597
 20
5137.051493543952
 30
0.0
 10
6585.375139566605
 20
5137.108572594553
 30
0.0
 10
6588.263308581146
 20
5137.166455618158
 30
0.0
 10
6590.940165353255
 20
5137.220677501714
 30
0.0
 10
6593.290976336986
 20
5137.274904823264
 30
0.0
 10
6595.21571899717
 20
5137.332771117513
 30
0.0
 10
6596.572407600909
 20
5137.38991097684
 30
0.0
 10
6597.332304983368
 20
5137.437159748062
 30
0.0
 10
6597.345620447533
 20
5137.469373830625
 30
0.0
 10
6597.351233603332
 20
5137.482953730062
 30
0.0
  0
SPLINE
  5
2CC
330
1F
100
AcDbEntity
  8
0
  6
Continuous
 62
     7
370
    25
100
AcDbSpline
210
0.0
220
0.0
230
1.0
 70
    24
 71
     3
 72
     9
 73
     5
 74
     0
 42
0.000000001
 43
0.00000001
 40
0.0
 40
0.0
 40
0.0
 40
0.0
 40
0.244770607221076
 40
1.0
 40
1.0
 40
1.0
 40
1.0
 10
6594.665224792335
 20
5137.894114020303
 30
0.0
 10
6594.510846981407
 20
5137.894114020303
 30
0.0
 10
6593.880142941077
 20
5137.894114020303
 30
0.0
 10
6593.119698966984
 20
5137.894114020303
 30
0.0
 10
6592.545389326188
 20
5137.894114020303
 30
0.0
  0
LINE
  5
2CD
330
1F
100
AcDbEntity
  8
0
  6
Continuous
 62
     7
370
    25
100
AcDbLine
 10
6570.9948652777
 20
5130.7359240083
 30
0.0
 11
6570.9775398838
 21
5130.7393512754
 31
0.0
  0
SPLINE
  5
2CE
330
1F
100
AcDbEntity
  8
0
  6
Continuous
 62
     7
370
    25
100
AcDbSpline
210
0.0
220
0.0
230
1.0
 70
     8
 71
     3
 72
    22
 73
    18
 74
     0
 42
0.000000001
 43
0.00000001
 40
0.0
 40
0.0
 40
0.0
 40
0.0
 40
0.0655398995354576
 40
0.1366742358693715
 40
0.2066790504037464
 40
0.2782691032816977
 40
0.3500562860650985
 40
0.4203327467561105
 40
0.491059714897872
 40
0.562956807473522
 40
0.634264095933053
 40
0.704214516290587
 40
0.7756737583775548
 40
0.8475268277323388
 40
0.9180200700911173
 40
0.9885132919181645
 40
1.0
 40
1.0
 40
1.0
 40
1.0
 10
6571.010264696452
 20
5130.744484725431
 30
0.0
 10
6571.082435378773
 20
5130.76209844317
 30
0.0
 10
6571.232937178871
 20
5130.798829372418
 30
0.0
 10
6572.247691586488
 20
5130.853432274065
 30
0.0
 10
6573.809917661972
 20
5130.906063984037
 30
0.0
 10
6575.896202889064
 20
5130.963443328422
 30
0.0
 10
6578.388914897921
 20
5131.021251467781
 30
0.0
 10
6581.152958963426
 20
5131.074767389783
 30
0.0
 10
6584.065016474478
 20
5131.129733798015
 30
0.0
 10
6586.998809787515
 20
5131.187660881801
 30
0.0
 10
6589.783978129648
 20
5131.244342374242
 30
0.0
 10
6592.294298944626
 20
5131.296804586424
 30
0.0
 10
6594.416269038205
 20
5131.353893690225
 30
0.0
 10
6596.058064700166
 20
5131.411738946952
 30
0.0
 10
6597.05546785679
 20
5131.466099473712
 30
0.0
 10
6597.487709474782
 20
5131.504574954139
 30
0.0
 10
6597.387215420049
 20
5131.526561184972
 30
0.0
 10
6597.373134584996
 20
5131.529641809896
 30
0.0
  0
LINE
  5
2CF
330
1F
100
AcDbEntity
  8
0
  6
Continuous
 62
     7
370
    25
100
AcDbLine
 10
6570.9948652777
 20
5132.3234266667
 30
0.0
 11
6570.9775398838
 21
5132.3268539338
 31
0.0
  0
SPLINE
  5
2D0
330
1F
100
AcDbEntity
  8
0
  6
Continuous
 62
     7
370
    25
100
AcDbSpline
210
0.0
220
0.0
230
1.0
 70
     8
 71
     3
 72
    22
 73
    18
 74
     0
 42
0.000000001
 43
0.00000001
 40
0.0
 40
0.0
 40
0.0
 40
0.0
 40
0.0655399028441646
 40
0.1366742389035204
 40
0.2066790497964184
 40
0.2782691059270086
 40
0.3500562848846448
 40
0.4203327487030413
 40
0.491059713128577
 40
0.5629568089860515
 40
0.6342640971703568
 40
0.7042145172579023
 40
0.775673755553038
 40
0.847526828185567
 40
0.9180200702722618
 40
0.9885132884072108
 40
1.0
 40
1.0
 40
1.0
 40
1.0
 10
6571.010264696452
 20
5132.331979933218
 30
0.0
 10
6571.082435377342
 20
5132.34959649752
 30
0.0
 10
6571.2329371702
 20
5132.386333361836
 30
0.0
 10
6572.247691525055
 20
5132.440938075039
 30
0.0
 10
6573.809917802102
 20
5132.493552938765
 30
0.0
 10
6575.896202705338
 20
5132.55095317283
 30
0.0
 10
6578.388915105602
 20
5132.608739383065
 30
0.0
 10
6581.152958745127
 20
5132.662277160725
 30
0.0
 10
6584.065016692344
 20
5132.71722247557
 30
0.0
 10
6586.998809666038
 20
5132.7751674985
 30
0.0
 10
6589.783978159857
 20
5132.831843193789
 30
0.0
 10
6592.294298855832
 20
5132.88431070343
 30
0.0
 10
6594.416269170049
 20
5132.941384028703
 30
0.0
 10
6596.058064638695
 20
5132.999242521483
 30
0.0
 10
6597.055467858087
 20
5133.053610348832
 30
0.0
 10
6597.487709452877
 20
5133.092055510663
 30
0.0
 10
6597.387215421159
 20
5133.11406112627
 30
0.0
 10
6597.373134584996
 20
5133.117144468263
 30
0.0
  0
LINE
  5
2D1
330
1F
100
AcDbEntity
  8
0
  6
Continuous
 62
     7
370
    25
100
AcDbLine
 10
6570.9948652777
 20
5133.9109218745
 30
0.0
 11
6570.9775398838
 21
5133.9143491416
 31
0.0
  0
SPLINE
  5
2D2
330
1F
100
AcDbEntity
  8
0
  6
Continuous
 62
     7
370
    25
100
AcDbSpline
210
0.0
220
0.0
230
1.0
 70
     8
 71
     3
 72
    22
 73
    18
 74
     0
 42
0.000000001
 43
0.00000001
 40
0.0
 40
0.0
 40
0.0
 40
0.0
 40
0.0655398992836751
 40
0.1366742388281459
 40
0.2066790497223072
 40
0.2782691058541894
 40
0.3500562848131212
 40
0.4203327452341544
 40
0.4910597131042065
 40
0.5629568089629785
 40
0.6342640936477353
 40
0.7042145137365432
 40
0.7756737555489884
 40
0.8475268281828142
 40
0.9180200668507676
 40
0.9885132884070034
 40
0.9999999999999999
 40
0.9999999999999999
 40
0.9999999999999999
 40
0.9999999999999999
 10
6571.010264696452
 20
5133.919482591585
 30
0.0
 10
6571.082435388039
 20
5133.937095288128
 30
0.0
 10
6571.232937211297
 20
5133.973824088754
 30
0.0
 10
6572.247691485944
 20
5134.028443916676
 30
0.0
 10
6573.809917801645
 20
5134.081054954974
 30
0.0
 10
6575.896202721408
 20
5134.138455134273
 30
0.0
 10
6578.388915002605
 20
5134.196245453987
 30
0.0
 10
6581.152958931755
 20
5134.24976713164
 30
0.0
 10
6584.065016592526
 20
5134.304727973184
 30
0.0
 10
6586.99880958838
 20
5134.362671794764
 30
0.0
 10
6589.783978237403
 20
5134.419336634162
 30
0.0
 10
6592.29429891884
 20
5134.471804169105
 30
0.0
 10
6594.416269110226
 20
5134.528888264402
 30
0.0
 10
6596.058064604562
 20
5134.586748202603
 30
0.0
 10
6597.055467909357
 20
5134.641099671283
 30
0.0
 10
6597.487709454812
 20
5134.67955858101
 30
0.0
 10
6597.387215420882
 20
5134.701563835381
 30
0.0
 10
6597.373134584996
 20
5134.70464712663
 30
0.0
  0
LINE
  5
2D3
330
1F
100
AcDbEntity
  8
0
  6
Continuous
 62
     7
370
    25
100
AcDbLine
 10
6570.9948652777
 20
5135.4984245328
 30
0.0
 11
6570.9775398838
 21
5135.5018517999
 31
0.0
  0
SPLINE
  5
2D4
330
1F
100
AcDbEntity
  8
0
  6
Continuous
 62
     7
370
    25
100
AcDbSpline
210
0.0
220
0.0
230
1.0
 70
     8
 71
     3
 72
    22
 73
    18
 74
     0
 42
0.000000001
 43
0.00000001
 40
0.0
 40
0.0
 40
0.0
 40
0.0
 40
0.0655399028659245
 40
0.1366742389488975
 40
0.2066790532363162
 40
0.278269105861719
 40
0.3500562848431892
 40
0.4203327486849181
 40
0.4910597131339359
 40
0.5629568090152809
 40
0.6342640972232609
 40
0.7042145173340306
 40
0.7756737591689113
 40
0.847526828270219
 40
0.9180200703803182
 40
0.9885132919586862
 40
0.9999999999999999
 40
0.9999999999999999
 40
0.9999999999999999
 40
0.9999999999999999
 10
6571.010264696452
 20
5135.506977799371
 30
0.0
 10
6571.082435374326
 20
5135.524594621363
 30
0.0
 10
6571.232937160893
 20
5135.561332023053
 30
0.0
 10
6572.247691582299
 20
5135.615932465962
 30
0.0
 10
6573.809917678954
 20
5135.668563697663
 30
0.0
 10
6575.896202788861
 20
5135.725947538743
 30
0.0
 10
6578.388915094454
 20
5135.783738170432
 30
0.0
 10
6581.152958748308
 20
5135.837274765372
 30
0.0
 10
6584.065016690709
 20
5135.892220471201
 30
0.0
 10
6586.998809669377
 20
5135.950165110369
 30
0.0
 10
6589.783978148356
 20
5136.006841931118
 30
0.0
 10
6592.294298939535
 20
5136.059305374272
 30
0.0
 10
6594.416269039591
 20
5136.116394143054
 30
0.0
 10
6596.058064699801
 20
5136.174239490384
 30
0.0
 10
6597.055467856891
 20
5136.228599992979
 30
0.0
 10
6597.487709474779
 20
5136.267075478822
 30
0.0
 10
6597.387215420048
 20
5136.289061709513
 30
0.0
 10
6597.373134584996
 20
5136.292142334417
 30
0.0
  0
LINE
  5
2D5
330
1F
100
AcDbEntity
  8
0
  6
Continuous
 62
     7
370
    25
100
AcDbLine
 10
6570.9948652777
 20
5137.0859271912
 30
0.0
 11
6570.9775398838
 21
5137.0893544583
 31
0.0
  0
SPLINE
  5
2D6
330
1F
100
AcDbEntity
  8
0
  6
Continuous
 62
     7
370
    25
100
AcDbSpline
210
0.0
220
0.0
230
1.0
 70
     8
 71
     3
 72
    22
 73
    18
 74
     0
 42
0.000000001
 43
0.00000001
 40
0.0
 40
0.0
 40
0.0
 40
0.0
 40
0.0655368833760839
 40
0.1366679422280003
 40
0.2066695279514547
 40
0.2782562858792706
 40
0.3500401575525493
 40
0.4203133802877915
 40
0.4910370897168586
 40
0.5629308732260289
 40
0.6342348762348724
 40
0.7041820736587957
 40
0.7756380197780243
 40
0.8474877820904293
 40
0.9179777765053219
 40
0.988467746969572
 40
1.0
 40
1.0
 40
1.0
 40
1.0
 10
6571.010264696452
 20
5137.094480457738
 30
0.0
 10
6571.082435378191
 20
5137.112097026998
 30
0.0
 10
6571.232937172818
 20
5137.148833901651
 30
0.0
 10
6572.247691513609
 20
5137.203438532696
 30
0.0
 10
6573.809917844556
 20
5137.256053711269
 30
0.0
 10
6575.896202542594
 20
5137.313452746736
 30
0.0
 10
6578.38891566934
 20
5137.371243431157
 30
0.0
 10
6581.152956494489
 20
5137.424764805692
 30
0.0
 10
6584.065025824299
 20
5137.47972650772
 30
0.0
 10
6586.99877467531
 20
5137.537667146915
 30
0.0
 10
6589.784106503117
 20
5137.594343718351
 30
0.0
 10
6592.293825616426
 20
5137.646812069137
 30
0.0
 10
6594.418083222138
 20
5137.70388109
 30
0.0
 10
6596.051311973649
 20
5137.761756000712
 30
0.0
 10
6597.080133171929
 20
5137.816063537725
 30
0.0
 10
6597.428287480301
 20
5137.854681943717
 30
0.0
 10
6597.406969787139
 20
5137.876548256544
 30
0.0
 10
6597.403972538087
 20
5137.879622641042
 30
0.0
  0
SPLINE
  5
2D7
330
1F
100
AcDbEntity
  8
0
  6
Continuous
 62
     7
370
    25
100
AcDbSpline
210
0.0
220
0.0
230
1.0
 70
     8
 71
     3
 72
    22
 73
    18
 74
     0
 42
0.000000001
 43
0.00000001
 40
0.0
 40
0.0
 40
0.0
 40
0.0
 40
0.0366004436342132
 40
0.1076185409700268
 40
0.1771419854458325
 40
0.2471111248495297
 40
0.3182380144739964
 40
0.3887813152771395
 40
0.4579821299287258
 40
0.5286757915849484
 40
0.5997591420610476
 40
0.669497024427144
 40
0.7392349200394317
 40
0.8103182229715101
 40
0.8810119053428579
 40
0.9502127291959079
 40
1.0
 40
1.0
 40
1.0
 40
1.0
 10
6571.911926509712
 20
5129.644130828813
 30
0.0
 10
6571.897234235243
 20
5129.653923489999
 30
0.0
 10
6571.854033634791
 20
5129.682717455437
 30
0.0
 10
6572.444628958148
 20
5129.731486304176
 30
0.0
 10
6573.601228868282
 20
5129.784901665813
 30
0.0
 10
6575.298935600214
 20
5129.839895135058
 30
0.0
 10
6577.432655487147
 20
5129.897814919879
 30
0.0
 10
6579.891555239191
 20
5129.954497623447
 30
0.0
 10
6582.551139501626
 20
5130.006962145118
 30
0.0
 10
6585.298566577776
 20
5130.064041236989
 30
0.0
 10
6587.999001298663
 20
5130.121924139332
 30
0.0
 10
6590.501889427345
 20
5130.176146066536
 30
0.0
 10
6592.699892733219
 20
5130.230373559899
 30
0.0
 10
6594.499608571804
 20
5130.288239366324
 30
0.0
 10
6595.767828442113
 20
5130.345380851691
 30
0.0
 10
6596.476914783331
 20
5130.392464113507
 30
0.0
 10
6596.489723999932
 20
5130.424502612837
 30
0.0
 10
6596.495083661649
 20
5130.437908235029
 30
0.0
  0
SPLINE
  5
2D8
330
1F
100
AcDbEntity
  8
0
  6
Continuous
 62
     7
370
    25
100
AcDbSpline
210
0.0
220
0.0
230
1.0
 70
     8
 71
     3
 72
    22
 73
    18
 74
     0
 42
0.000000001
 43
0.00000001
 40
0.0
 40
0.0
 40
0.0
 40
0.0
 40
0.0248817080806327
 40
0.0967636613116584
 40
0.1671327887699892
 40
0.2379530247270626
 40
0.3099451017305818
 40
0.381346487096164
 40
0.4513890563875912
 40
0.5229426275599117
 40
0.5948906358025559
 40
0.6654768056685884
 40
0.7360629889419379
 40
0.8080109449905952
 40
0.8795645411569339
 40
0.9496071197617509
 40
1.0
 40
1.0
 40
1.0
 40
1.0
 10
6571.912720927868
 20
5131.241311791376
 30
0.0
 10
6571.905294000369
 20
5131.247894178045
 30
0.0
 10
6571.876411067784
 20
5131.273492735514
 30
0.0
 10
6572.451029271812
 20
5131.318988101623
 30
0.0
 10
6573.599517998297
 20
5131.372407726513
 30
0.0
 10
6575.299404006726
 20
5131.427384825412
 30
0.0
 10
6577.432530125343
 20
5131.485321277499
 30
0.0
 10
6579.891587985491
 20
5131.541998466574
 30
0.0
 10
6582.551130475508
 20
5131.594468417551
 30
0.0
 10
6585.2985692175
 20
5131.6515309102
 30
0.0
 10
6587.999000542723
 20
5131.709430210257
 30
0.0
 10
6590.501889615435
 20
5131.76364781819
 30
0.0
 10
6592.699892681723
 20
5131.817876466507
 30
0.0
 10
6594.499608585644
 20
5131.875741957971
 30
0.0
 10
6595.767828438476
 20
5131.932883527585
 30
0.0
 10
6596.476914783942
 20
5131.979966768921
 30
0.0
 10
6596.489724000113
 20
5132.012005270333
 30
0.0
 10
6596.495083661649
 20
5132.025410893396
 30
0.0
  0
SPLINE
  5
2D9
330
1F
100
AcDbEntity
  8
0
  6
Continuous
 62
     7
370
    25
100
AcDbSpline
210
0.0
220
0.0
230
1.0
 70
     8
 71
     3
 72
    22
 73
    18
 74
     0
 42
0.000000001
 43
0.00000001
 40
0.0
 40
0.0
 40
0.0
 40
0.0
 40
0.0248817121211303
 40
0.0967636653473796
 40
0.1671327889085586
 40
0.2379530288044915
 40
0.3099451058032269
 40
0.381346487154538
 40
0.4513890602962805
 40
0.5229426314638463
 40
0.5948906397017096
 40
0.6654768056460854
 40
0.7360629889147445
 40
0.808010949030267
 40
0.8795645411649368
 40
0.9496071197650995
 40
1.0
 40
1.0
 40
1.0
 40
1.0
 10
6571.912720927868
 20
5132.828806999162
 30
0.0
 10
6571.905293998683
 20
5132.835392170809
 30
0.0
 10
6571.87641106303
 20
5132.861001555819
 30
0.0
 10
6572.451029219605
 20
5132.906491997526
 30
0.0
 10
6573.599518104125
 20
5132.95989834046
 30
0.0
 10
6575.299403947441
 20
5133.014889914777
 30
0.0
 10
6577.432530027742
 20
5133.072826563253
 30
0.0
 10
6579.891588180444
 20
5133.129488423407
 30
0.0
 10
6582.551130357436
 20
5133.181974695692
 30
0.0
 10
6585.298569247865
 20
5133.239031950156
 30
0.0
 10
6587.99900044166
 20
5133.296935649771
 30
0.0
 10
6590.501889697999
 20
5133.351141146665
 30
0.0
 10
6592.69989274934
 20
5133.40536903938
 30
0.0
 10
6594.499608467774
 20
5133.463249886209
 30
0.0
 10
6595.767828491731
 20
5133.520375395256
 30
0.0
 10
6596.476914777475
 20
5133.567462539747
 30
0.0
 10
6596.489723998205
 20
5133.599500644212
 30
0.0
 10
6596.495083661649
 20
5133.612906101182
 30
0.0
  0
SPLINE
  5
2DA
330
1F
100
AcDbEntity
  8
0
  6
Continuous
 62
     7
370
    25
100
AcDbSpline
210
0.0
220
0.0
230
1.0
 70
     8
 71
     3
 72
    22
 73
    18
 74
     0
 42
0.000000001
 43
0.00000001
 40
0.0
 40
0.0
 40
0.0
 40
0.0
 40
0.0248817080807775
 40
0.09676366537655
 40
0.1671327889428146
 40
0.2379530288438657
 40
0.3099451017712931
 40
0.3813464871372909
 40
0.4513890564291258
 40
0.5229426316287784
 40
0.594890635800198
 40
0.6654768056666412
 40
0.7360629889404018
 40
0.8080109449894778
 40
0.8795645411562331
 40
0.9496071197614577
 40
1.0
 40
1.0
 40
1.0
 40
1.0
 10
6571.912720927868
 20
5134.416309657529
 30
0.0
 10
6571.905294002067
 20
5134.422891830685
 30
0.0
 10
6571.876411074869
 20
5134.448489558888
 30
0.0
 10
6572.451029184106
 20
5134.49400022336
 30
0.0
 10
6573.599518123721
 20
5134.547398610016
 30
0.0
 10
6575.299403849051
 20
5134.60239663955
 30
0.0
 10
6577.432530229658
 20
5134.660315182256
 30
0.0
 10
6579.89158795293
 20
5134.716998216432
 30
0.0
 10
6582.551130599302
 20
5134.769462651008
 30
0.0
 10
6585.298569000921
 20
5134.826541766583
 30
0.0
 10
6587.999000661599
 20
5134.884424662519
 30
0.0
 10
6590.50188959656
 20
5134.93864659141
 30
0.0
 10
6592.69989268689
 20
5134.992874084322
 30
0.0
 10
6594.499608584255
 20
5135.050739890872
 30
0.0
 10
6595.767828438841
 20
5135.107881376205
 30
0.0
 10
6596.476914783882
 20
5135.15496463803
 30
0.0
 10
6596.489724000095
 20
5135.187003137358
 30
0.0
 10
6596.495083661649
 20
5135.20040875955
 30
0.0
  0
SPLINE
  5
2DB
330
1F
100
AcDbEntity
  8
0
  6
Continuous
 62
     7
370
    25
100
AcDbSpline
210
0.0
220
0.0
230
1.0
 70
     8
 71
     3
 72
    22
 73
    18
 74
     0
 42
0.000000001
 43
0.00000001
 40
0.0
 40
0.0
 40
0.0
 40
0.0
 40
0.024881708076784
 40
0.096763661296691
 40
0.167132788744137
 40
0.237953024690256
 40
0.3099451016826394
 40
0.3813464870371772
 40
0.4513890563177702
 40
0.5229426274790228
 40
0.5948906357105379
 40
0.665476805565652
 40
0.7360629849111179
 40
0.8080109450202924
 40
0.8795645411755632
 40
0.9496071197695459
 40
1.0
 40
1.0
 40
1.0
 40
1.0
 10
6571.912720927868
 20
5136.003812315897
 30
0.0
 10
6571.905294000369
 20
5136.010394702564
 30
0.0
 10
6571.876411067784
 20
5136.035993260028
 30
0.0
 10
6572.451029271811
 20
5136.08148862624
 30
0.0
 10
6573.599517998303
 20
5136.134908250694
 30
0.0
 10
6575.299404006707
 20
5136.189885351218
 30
0.0
 10
6577.432530125416
 20
5136.247821797155
 30
0.0
 10
6579.891587985226
 20
5136.30449900893
 30
0.0
 10
6582.551130476486
 20
5136.356968876312
 30
0.0
 10
6585.298569213749
 20
5136.414031686798
 30
0.0
 10
6587.999000556683
 20
5136.471929796443
 30
0.0
 10
6590.501889518445
 20
5136.526151769138
 30
0.0
 10
6592.699892837744
 20
5136.580364086464
 30
0.0
 10
6594.49960850865
 20
5136.638245949514
 30
0.0
 10
6595.767828452349
 20
5136.695383141105
 30
0.0
 10
6596.476914781605
 20
5136.742467446963
 30
0.0
 10
6596.489723999423
 20
5136.774505840142
 30
0.0
 10
6596.495083661649
 20
5136.787911417917
 30
0.0
  0
SPLINE
  5
2DC
330
1F
100
AcDbEntity
  8
0
  6
Continuous
 62
     7
370
    25
100
AcDbSpline
210
0.0
220
0.0
230
1.0
 70
     8
 71
     3
 72
    14
 73
    10
 74
     0
 42
0.000000001
 43
0.00000001
 40
0.0
 40
0.0
 40
0.0
 40
0.0
 40
0.0647048122090997
 40
0.2516335999904633
 40
0.4346282791017245
 40
0.618796084788143
 40
0.8060112490850686
 40
0.9916903112539232
 40
1.0
 40
1.0
 40
1.0
 40
1.0
 10
6571.912720927868
 20
5137.591307523683
 30
0.0
 10
6571.905293832855
 20
5137.597892696602
 30
0.0
 10
6571.876410252302
 20
5137.62350208656
 30
0.0
 10
6572.451040290543
 20
5137.668992437113
 30
0.0
 10
6573.599478749733
 20
5137.722399166901
 30
0.0
 10
6575.299552703256
 20
5137.777389298071
 30
0.0
 10
6577.431966767498
 20
5137.835331409001
 30
0.0
 10
6579.122664717873
 20
5137.874233195676
 30
0.0
 10
6580.018726206443
 20
5137.893297387882
 30
0.0
 10
6580.057109834525
 20
5137.894114020303
 30
0.0
  0
LINE
  5
2DD
330
1F
100
AcDbEntity
  8
0
  6
Continuous
 62
     7
370
    25
100
AcDbLine
 10
6574.0620578992
 20
5137.8941140203
 30
0.0
 11
6574.0620578992
 21
5148.3941129474
 31
0.0
  0
LINE
  5
2DE
330
1F
100
AcDbEntity
  8
0
  6
Continuous
 62
     7
370
    25
100
AcDbLine
 10
6587.5241841542
 20
5137.8941140203
 30
0.0
 11
6574.0620578992
 21
5137.8941140203
 31
0.0
  0
LINE
  5
2DF
330
1F
100
AcDbEntity
  8
0
  6
Continuous
 62
     7
370
    25
100
AcDbLine
 10
6569.9233078751
 20
5137.8941140203
 30
0.0
 11
6569.9233078751
 21
5148.3941129474
 31
0.0
  0
LINE
  5
2E0
330
1F
100
AcDbEntity
  8
0
  6
Continuous
 62
     7
370
    25
100
AcDbLine
 10
6574.0620578992
 20
5137.8941140203
 30
0.0
 11
6569.9233078751
 21
5137.8941140203
 31
0.0
  0
LINE
  5
2E1
330
1F
100
AcDbEntity
  8
0
  6
Continuous
 62
     7
370
    25
100
AcDbLine
 10
6570.7214261758
 20
5289.8941165833
 30
0.0
 11
6584.2459137904
 21
5289.8941165833
 31
0.0
  0
LINE
  5
2E2
330
1F
100
AcDbEntity
  8
0
  6
Continuous
 62
     7
370
    25
100
AcDbLine
 10
6584.2459137904
 20
5289.8941165833
 30
0.0
 11
6584.2459137904
 21
5279.3941176562
 31
0.0
  0
LINE
  5
2E3
330
1F
100
AcDbEntity
  8
0
  6
Continuous
 62
     7
370
    25
100
AcDbLine
 10
6570.7214261758
 20
5289.8941165833
 30
0.0
 11
6570.7214261758
 21
5279.3941176562
 31
0.0
  0
LINE
  5
2E4
330
1F
100
AcDbEntity
  8
0
  6
Continuous
 62
     7
370
    25
100
AcDbLine
 10
6597.7212927657
 20
5289.8941165833
 30
0.0
 11
6597.7212927657
 21
5279.3941176562
 31
0.0
  0
LINE
  5
2E5
330
1F
100
AcDbEntity
  8
0
  6
Continuous
 62
     7
370
    25
100
AcDbLine
 10
6584.2459137904
 20
5289.8941165833
 30
0.0
 11
6597.7212927657
 21
5289.8941165833
 31
0.0
  0
SPLINE
  5
2E6
330
1F
100
AcDbEntity
  8
0
  6
Continuous
 62
     7
370
    25
100
AcDbSpline
210
0.0
220
0.0
230
1.0
 70
     8
 71
     3
 72
    10
 73
     6
 74
     0
 42
0.000000001
 43
0.00000001
 40
0.0
 40
0.0
 40
0.0
 40
0.0
 40
0.3453831961500132
 40
0.6907663051743482
 40
1.0
 40
1.0
 40
1.0
 40
1.0
 10
6596.013861836765
 20
5297.394116881326
 30
0.0
 10
6596.291280795758
 20
5297.402893111284
 30
0.0
 10
6596.846118643763
 20
5297.420445568987
 30
0.0
 10
6597.285868606996
 20
5297.445779029466
 30
0.0
 10
6597.310760440508
 20
5297.461455646438
 30
0.0
 10
6597.322519065711
 20
5297.468861105875
 30
0.0
  0
SPLINE
  5
2E7
330
1F
100
AcDbEntity
  8
0
  6
Continuous
 62
     7
370
    25
100
AcDbSpline
210
0.0
220
0.0
230
1.0
 70
     8
 71
     3
 72
    18
 73
    14
 74
     0
 42
0.000000001
 43
0.00000001
 40
0.0
 40
0.0
 40
0.0
 40
0.0
 40
0.0551374159463321
 40
0.1539807967688395
 40
0.2492551329355146
 40
0.3473054585989837
 40
0.4423673203101931
 40
0.54020456924115
 40
0.6348352182362219
 40
0.732242178732415
 40
0.8263534955135222
 40
0.9231957908058653
 40
1.0
 40
1.0
 40
1.0
 40
1.0
 10
6571.597473824296
 20
5297.972170176939
 30
0.0
 10
6571.596868194217
 20
5297.977070373217
 30
0.0
 10
6571.595176867182
 20
5297.990755021185
 30
0.0
 10
6571.99288898649
 20
5298.014216289893
 30
0.0
 10
6572.746871013703
 20
5298.042217488292
 30
0.0
 10
6573.830686452324
 20
5298.06986164611
 30
0.0
 10
6575.213280246601
 20
5298.09647235138
 30
0.0
 10
6576.834194257305
 20
5298.122382258637
 30
0.0
 10
6578.676184181631
 20
5298.150287995259
 30
0.0
 10
6580.64887363318
 20
5298.178031801045
 30
0.0
 10
6582.731680750243
 20
5298.205765993062
 30
0.0
 10
6584.706200438793
 20
5298.229736025
 30
0.0
 10
6585.963481506728
 20
5298.246127470193
 30
0.0
 10
6586.519579531524
 20
5298.253377440408
 30
0.0
  0
LINE
  5
2E8
330
1F
100
AcDbEntity
  8
0
  6
Continuous
 62
     7
370
    25
100
AcDbLine
 10
6596.0138618368
 20
5297.3941168813
 30
0.0
 11
6578.2690040189
 21
5297.3941168813
 31
0.0
  0
SPLINE
  5
2E9
330
1F
100
AcDbEntity
  8
0
  6
Continuous
 62
     7
370
    25
100
AcDbSpline
210
0.0
220
0.0
230
1.0
 70
     8
 71
     3
 72
    16
 73
    12
 74
     0
 42
0.000000001
 43
0.00000001
 40
0.0
 40
0.0
 40
0.0
 40
0.0
 40
0.1148327060141548
 40
0.23071543744196
 40
0.3466033076144561
 40
0.4626832073948229
 40
0.5787630997209646
 40
0.6949736183388345
 40
0.811210927433596
 40
0.9056054048228477
 40
1.0
 40
1.0
 40
1.0
 40
1.0
 10
6594.42426929054
 20
5298.253377440408
 30
0.0
 10
6594.026549939891
 20
5298.219879982434
 30
0.0
 10
6593.227474509651
 20
5298.152578767143
 30
0.0
 10
6591.665361852874
 20
5298.05480937434
 30
0.0
 10
6589.898563184513
 20
5297.951864444545
 30
0.0
 10
6587.944104644273
 20
5297.848536959305
 30
0.0
 10
6585.869973232044
 20
5297.747428848635
 30
0.0
 10
6583.729213180913
 20
5297.652147499183
 30
0.0
 10
6581.721653258318
 20
5297.562364255272
 30
0.0
 10
6579.884968845929
 20
5297.474802513378
 30
0.0
 10
6578.807659185277
 20
5297.421012103197
 30
0.0
 10
6578.269004018876
 20
5297.394116881326
 30
0.0
  0
SPLINE
  5
2EA
330
1F
100
AcDbEntity
  8
0
  6
Continuous
 62
     7
370
    25
100
AcDbSpline
210
0.0
220
0.0
230
1.0
 70
    24
 71
     3
 72
    13
 73
     9
 74
     0
 42
0.000000001
 43
0.00000001
 40
0.0
 40
0.0
 40
0.0
 40
0.0
 40
0.0409240333406782
 40
0.20493915344765
 40
0.4196579277081265
 40
0.634376537582327
 40
0.8171883256385204
 40
1.0
 40
1.0
 40
1.0
 40
1.0
 10
6586.519579531524
 20
5298.253377440408
 30
0.0
 10
6586.649277570425
 20
5298.253377440408
 30
0.0
 10
6587.298778710131
 20
5298.253377440408
 30
0.0
 10
6588.603779829915
 20
5298.253377440408
 30
0.0
 10
6590.352862806396
 20
5298.253377440408
 30
0.0
 10
6591.988869881003
 20
5298.253377440408
 30
0.0
 10
6593.365675561181
 20
5298.253377440408
 30
0.0
 10
6594.071404787238
 20
5298.253377440408
 30
0.0
 10
6594.42426929054
 20
5298.253377440408
 30
0.0
  0
LINE
  5
2EB
330
1F
100
AcDbEntity
  8
0
  6
Continuous
 62
     7
370
    25
100
AcDbLine
 10
6572.476305196
 20
5298.8941199212
 30
0.0
 11
6595.9172464329
 21
5298.8941199212
 31
0.0
  0
SPLINE
  5
2EC
330
1F
100
AcDbEntity
  8
0
  6
Continuous
 62
     7
370
    25
100
AcDbSpline
210
0.0
220
0.0
230
1.0
 70
     8
 71
     3
 72
    20
 73
    16
 74
     0
 42
0.000000001
 43
0.00000001
 40
0.0
 40
0.0
 40
0.0
 40
0.0
 40
0.0469841512975291
 40
0.0932611984265305
 40
0.1810323156641742
 40
0.2700141289753247
 40
0.3580247610999672
 40
0.4446378056440803
 40
0.5332123505664855
 40
0.6220308187940305
 40
0.7089799639335412
 40
0.7964865741485971
 40
0.8854410734287834
 40
0.9736657162265712
 40
1.0
 40
1.0
 40
1.0
 40
1.0
 10
6594.42426929054
 20
5298.253377440408
 30
0.0
 10
6594.137784370355
 20
5298.243460521951
 30
0.0
 10
6593.56912608347
 20
5298.223775933116
 30
0.0
 10
6592.252543283676
 20
5298.187735383299
 30
0.0
 10
6590.379655798001
 20
5298.140274170046
 30
0.0
 10
6587.847381326123
 20
5298.08243316311
 30
0.0
 10
6585.149753870492
 20
5298.026216210985
 30
0.0
 10
6582.410947926584
 20
5297.973581590175
 30
0.0
 10
6579.749250780595
 20
5297.916188031917
 30
0.0
 10
6577.301641784476
 20
5297.85839538876
 30
0.0
 10
6575.202263977623
 20
5297.804876600227
 30
0.0
 10
6573.522894822664
 20
5297.749906047009
 30
0.0
 10
6572.400784418659
 20
5297.69199857611
 30
0.0
 10
6571.858910770415
 20
5297.648167810425
 30
0.0
 10
6571.895798829806
 20
5297.624825512509
 30
0.0
 10
6571.904278488729
 20
5297.61945969148
 30
0.0
  0
SPLINE
  5
2ED
330
1F
100
AcDbEntity
  8
0
  6
Continuous
 62
     7
370
    25
100
AcDbSpline
210
0.0
220
0.0
230
1.0
 70
     8
 71
     3
 72
    24
 73
    20
 74
     0
 42
0.000000001
 43
0.00000001
 40
0.0
 40
0.0
 40
0.0
 40
0.0
 40
0.0223686920663031
 40
0.0934804373543918
 40
0.1653768454234212
 40
0.1920099211200732
 40
0.2299726492393145
 40
0.2673640442055569
 40
0.3382822321960241
 40
0.4101786545640056
 40
0.4812903761518937
 40
0.5512728568566334
 40
0.6228402104070131
 40
0.6946046515679859
 40
0.7648586982193574
 40
0.8355631711211655
 40
0.9074375240231102
 40
0.9787221561252027
 40
1.0
 40
1.0
 40
1.0
 40
1.0
 10
6596.494509966943
 20
5296.817821922735
 30
0.0
 10
6596.512452183933
 20
5296.812164199926
 30
0.0
 10
6596.587434050837
 20
5296.788520153101
 30
0.0
 10
6596.109022503543
 20
5296.744872764912
 30
0.0
 10
6595.282358459714
 20
5296.698930163959
 30
0.0
 10
6594.359040455369
 20
5296.662830842367
 30
0.0
 10
6593.56314508732
 20
5296.636298394443
 30
0.0
 10
6592.255780412072
 20
5296.60021799918
 30
0.0
 10
6590.37855501691
 20
5296.552785784772
 30
0.0
 10
6587.847674414498
 20
5296.49493870708
 30
0.0
 10
6585.149677219226
 20
5296.438711404813
 30
0.0
 10
6582.410968854472
 20
5296.386079525567
 30
0.0
 10
6579.749245098771
 20
5296.328685183617
 30
0.0
 10
6577.301643272521
 20
5296.270892886675
 30
0.0
 10
6575.202263580306
 20
5296.217373511845
 30
0.0
 10
6573.522894929785
 20
5296.162404978269
 30
0.0
 10
6572.400784417186
 20
5296.104489909582
 30
0.0
 10
6571.858910764886
 20
5296.060680780277
 30
0.0
 10
6571.895798827515
 20
5296.037325776002
 30
0.0
 10
6571.904278488729
 20
5296.031957033113
 30
0.0
  0
SPLINE
  5
2EE
330
1F
100
AcDbEntity
  8
0
  6
Continuous
 62
     7
370
    25
100
AcDbSpline
210
0.0
220
0.0
230
1.0
 70
     8
 71
     3
 72
    24
 73
    20
 74
     0
 42
0.000000001
 43
0.00000001
 40
0.0
 40
0.0
 40
0.0
 40
0.0
 40
0.0223686920715363
 40
0.0934804333927344
 40
0.1653768414785843
 40
0.1920099171814672
 40
0.2299726453095901
 40
0.2673640402845804
 40
0.3382822322530601
 40
0.4101786546378622
 40
0.4812903722588582
 40
0.551272856834807
 40
0.6228402063668075
 40
0.69460464754457
 40
0.7648586980984899
 40
0.8355631670797239
 40
0.9074375199984839
 40
0.9787221561202247
 40
1.0
 40
1.0
 40
1.0
 40
1.0
 10
6596.494509966943
 20
5295.230319264368
 30
0.0
 10
6596.512452184717
 20
5295.224661408451
 30
0.0
 10
6596.587434051708
 20
5295.201016806364
 30
0.0
 10
6596.10902247501
 20
5295.157380773052
 30
0.0
 10
6595.282358461004
 20
5295.111434644853
 30
0.0
 10
6594.359040454453
 20
5295.075335743666
 30
0.0
 10
6593.563145091563
 20
5295.048802920818
 30
0.0
 10
6592.255780355636
 20
5295.012724036075
 30
0.0
 10
6590.378555091028
 20
5294.965281129456
 30
0.0
 10
6587.847674524345
 20
5294.907433144748
 30
0.0
 10
6585.149677000633
 20
5294.851222077269
 30
0.0
 10
6582.410969073227
 20
5294.798570995307
 30
0.0
 10
6579.749244990562
 20
5294.741192722597
 30
0.0
 10
6577.301643198795
 20
5294.683400180077
 30
0.0
 10
6575.202263718868
 20
5294.629865892841
 30
0.0
 10
6573.522894863701
 20
5294.574912411948
 30
0.0
 10
6572.400784398789
 20
5294.516996855295
 30
0.0
 10
6571.858910766719
 20
5294.473177537668
 30
0.0
 10
6571.895798828155
 20
5294.449823008245
 30
0.0
 10
6571.904278488729
 20
5294.444454374746
 30
0.0
  0
SPLINE
  5
2EF
330
1F
100
AcDbEntity
  8
0
  6
Continuous
 62
     7
370
    25
100
AcDbSpline
210
0.0
220
0.0
230
1.0
 70
     8
 71
     3
 72
    24
 73
    20
 74
     0
 42
0.000000001
 43
0.00000001
 40
0.0
 40
0.0
 40
0.0
 40
0.0
 40
0.0223686921524365
 40
0.0934804337308221
 40
0.1653768420766974
 40
0.1920099178759034
 40
0.2299726461413248
 40
0.2673640412515474
 40
0.3382822334765148
 40
0.4101786561213422
 40
0.4812903739995258
 40
0.5512728549737417
 40
0.6228402087997003
 40
0.6946046502370109
 40
0.7648586971589042
 40
0.8355631703329686
 40
0.9074375235116742
 40
0.9787221598912279
 40
0.9999999999999999
 40
0.9999999999999999
 40
0.9999999999999999
 40
0.9999999999999999
 10
6596.494509966943
 20
5293.642816606
 30
0.0
 10
6596.512452184718
 20
5293.63715875008
 30
0.0
 10
6596.587434051708
 20
5293.613514147979
 30
0.0
 10
6596.109022475003
 20
5293.56987811498
 30
0.0
 10
6595.28235846102
 20
5293.523931985691
 30
0.0
 10
6594.35904045443
 20
5293.487833086452
 30
0.0
 10
6593.563145091694
 20
5293.461300255854
 30
0.0
 10
6592.255780354974
 20
5293.425221410783
 30
0.0
 10
6590.378555096084
 20
5293.37777821825
 30
0.0
 10
6587.847674505662
 20
5293.319931420612
 30
0.0
 10
6585.149677117748
 20
5293.263716005323
 30
0.0
 10
6582.410968868173
 20
5293.211080978655
 30
0.0
 10
6579.749245095015
 20
5293.153687531017
 30
0.0
 10
6577.30164327364
 20
5293.095894858052
 30
0.0
 10
6575.202263579512
 20
5293.042376077359
 30
0.0
 10
6573.522894931878
 20
5292.987405522034
 30
0.0
 10
6572.400784388509
 20
5292.929498051713
 30
0.0
 10
6571.858910772252
 20
5292.885667285896
 30
0.0
 10
6571.895798830149
 20
5292.862324987987
 30
0.0
 10
6571.904278488729
 20
5292.856959166959
 30
0.0
  0
SPLINE
  5
2F0
330
1F
100
AcDbEntity
  8
0
  6
Continuous
 62
     7
370
    25
100
AcDbSpline
210
0.0
220
0.0
230
1.0
 70
     8
 71
     3
 72
    24
 73
    20
 74
     0
 42
0.000000001
 43
0.00000001
 40
0.0
 40
0.0
 40
0.0
 40
0.0
 40
0.0223686920670228
 40
0.0934804373573997
 40
0.1653768413564721
 40
0.1920099210715151
 40
0.229972649191978
 40
0.2673640441594236
 40
0.3382822321521727
 40
0.4101786545224677
 40
0.4812903761126439
 40
0.5512728568196356
 40
0.6228402063371955
 40
0.6946046515581592
 40
0.7648586982117912
 40
0.8355631711158744
 40
0.9074375240201318
 40
0.9787221561245181
 40
1.0
 40
1.0
 40
1.0
 40
1.0
 10
6596.494509966943
 20
5292.055321398214
 30
0.0
 10
6596.512452183181
 20
5292.049663749607
 30
0.0
 10
6596.587434046943
 20
5292.026020012876
 30
0.0
 10
6596.109022575566
 20
5291.982366296556
 30
0.0
 10
6595.282358319812
 20
5291.936445579516
 30
0.0
 10
6594.359040524727
 20
5291.900326581263
 30
0.0
 10
6593.563145076073
 20
5291.87379897443
 30
0.0
 10
6592.255780418311
 20
5291.837716869003
 30
0.0
 10
6590.378555013533
 20
5291.790285530608
 30
0.0
 10
6587.847674419901
 20
5291.732437879406
 30
0.0
 10
6585.149677201347
 20
5291.676211804892
 30
0.0
 10
6582.410968972132
 20
5291.623575627706
 30
0.0
 10
6579.749244896365
 20
5291.56619757986
 30
0.0
 10
6577.30164337868
 20
5291.508388979273
 30
0.0
 10
6575.202263562631
 20
5291.45487389197
 30
0.0
 10
6573.522894934634
 20
5291.399904205576
 30
0.0
 10
6572.400784415847
 20
5291.341989453573
 30
0.0
 10
6571.858910764967
 20
5291.298180251581
 30
0.0
 10
6571.89579882753
 20
5291.2748252507
 30
0.0
 10
6571.904278488729
 20
5291.269456508592
 30
0.0
  0
SPLINE
  5
2F1
330
1F
100
AcDbEntity
  8
0
  6
Continuous
 62
     7
370
    25
100
AcDbSpline
210
0.0
220
0.0
230
1.0
 70
     8
 71
     3
 72
    20
 73
    16
 74
     0
 42
0.000000001
 43
0.00000001
 40
0.0
 40
0.0
 40
0.0
 40
0.0
 40
0.030669818052745
 40
0.1281714583256811
 40
0.2267489588602249
 40
0.2632656932039286
 40
0.3153165668424867
 40
0.3665840829294257
 40
0.4638203467819117
 40
0.5623978669218156
 40
0.6598994746992941
 40
0.7558527857806588
 40
0.85397911259691
 40
0.9523756726881287
 40
1.0
 40
1.0
 40
1.0
 40
1.0
 10
6596.494509966943
 20
5290.467818739847
 30
0.0
 10
6596.512452184971
 20
5290.462160883927
 30
0.0
 10
6596.587434053019
 20
5290.43851628183
 30
0.0
 10
6596.109022454738
 20
5290.394880248759
 30
0.0
 10
6595.282358515355
 20
5290.348934119718
 30
0.0
 10
6594.359040375639
 20
5290.312835220036
 30
0.0
 10
6593.563145542589
 20
5290.286302391205
 30
0.0
 10
6592.255778094363
 20
5290.250223537083
 30
0.0
 10
6590.378572377314
 20
5290.202780409776
 30
0.0
 10
6587.847610652323
 20
5290.144933341331
 30
0.0
 10
6585.149910451532
 20
5290.088718917127
 30
0.0
 10
6582.41010483791
 20
5290.036080227855
 30
0.0
 10
6579.752557490189
 20
5289.978654800524
 30
0.0
 10
6577.698996528981
 20
5289.93062005287
 30
0.0
 10
6576.625102096375
 20
5289.903094100177
 30
0.0
 10
6576.274854259465
 20
5289.894116583303
 30
0.0
  0
SPLINE
  5
2F2
330
1F
100
AcDbEntity
  8
0
  6
Continuous
 62
     7
370
    25
100
AcDbSpline
210
0.0
220
0.0
230
1.0
 70
     8
 71
     3
 72
    13
 73
     9
 74
     0
 42
0.000000001
 43
0.00000001
 40
0.0
 40
0.0
 40
0.0
 40
0.0
 40
0.1112389857895436
 40
0.3087247088254843
 40
0.5074763177427722
 40
0.7095162591371232
 40
0.9098986009788266
 40
1.0
 40
1.0
 40
1.0
 40
1.0
 10
6578.269004018876
 20
5297.394116881326
 30
0.0
 10
6577.794086174717
 20
5297.383525439292
 30
0.0
 10
6576.476033226698
 20
5297.354130710146
 30
0.0
 10
6574.578731145726
 20
5297.308800429206
 30
0.0
 10
6572.782113372559
 20
5297.253810700387
 30
0.0
 10
6571.574235826447
 20
5297.195873951469
 30
0.0
 10
6570.982401949404
 20
5297.149282012563
 30
0.0
 10
6571.036887900902
 20
5297.123249334476
 30
0.0
 10
6571.053788194332
 20
5297.115174594358
 30
0.0
  0
SPLINE
  5
2F3
330
1F
100
AcDbEntity
  8
0
  6
Continuous
 62
     7
370
    25
100
AcDbSpline
210
0.0
220
0.0
230
1.0
 70
     8
 71
     3
 72
    23
 73
    19
 74
     0
 42
0.000000001
 43
0.00000001
 40
0.0
 40
0.0
 40
0.0
 40
0.0
 40
0.0219693922860107
 40
0.0923395861014993
 40
0.1634861707851164
 40
0.2336649376837967
 40
0.3030252814607756
 40
0.3739545454010445
 40
0.4448837627472294
 40
0.5142441531016204
 40
0.5844229015561364
 40
0.647966672169528
 40
0.6871264990388578
 40
0.7566480586944501
 40
0.826615245601222
 40
0.8977400385393958
 40
0.9682813046539523
 40
1.0
 40
1.0
 40
1.0
 40
1.0
 10
6597.349628003213
 20
5296.321598353818
 30
0.0
 10
6597.368626392109
 20
5296.315982356925
 30
0.0
 10
6597.448478549348
 20
5296.292377751847
 30
0.0
 10
6596.937527166666
 20
5296.248791468235
 30
0.0
 10
6595.820090033443
 20
5296.190828472368
 30
0.0
 10
6594.09578285262
 20
5296.13521072087
 30
0.0
 10
6591.909586198172
 20
5296.082205975662
 30
0.0
 10
6589.336753209398
 20
5296.024591528502
 30
0.0
 10
6586.512416398202
 20
5295.966958564753
 30
0.0
 10
6583.587299637732
 20
5295.913964377719
 30
0.0
 10
6580.792339580213
 20
5295.860330407669
 30
0.0
 10
6578.545644928407
 20
5295.81315188765
 30
0.0
 10
6576.483771293905
 20
5295.766663326484
 30
0.0
 10
6574.576171826407
 20
5295.721283679497
 30
0.0
 10
6572.782814876434
 20
5295.666320665026
 30
0.0
 10
6571.574044272788
 20
5295.608380100308
 30
0.0
 10
6570.982420689253
 20
5295.56177849371
 30
0.0
 10
6571.036892337894
 20
5295.535746472186
 30
0.0
 10
6571.053788194332
 20
5295.527671935991
 30
0.0
  0
SPLINE
  5
2F4
330
1F
100
AcDbEntity
  8
0
  6
Continuous
 62
     7
370
    25
100
AcDbSpline
210
0.0
220
0.0
230
1.0
 70
     8
 71
     3
 72
    23
 73
    19
 74
     0
 42
0.000000001
 43
0.00000001
 40
0.0
 40
0.0
 40
0.0
 40
0.0
 40
0.0219693889447987
 40
0.0923395861860428
 40
0.1634861708487798
 40
0.2336649342995872
 40
0.3030252780562102
 40
0.373954545477319
 40
0.4448837628026877
 40
0.5142441531367228
 40
0.5844228981433651
 40
0.6479666687381078
 40
0.6871264990865489
 40
0.756648055359616
 40
0.826615245652107
 40
0.8977400385694071
 40
0.9682813046632613
 40
1.0
 40
1.0
 40
1.0
 40
1.0
 10
6597.349628003213
 20
5294.734095695451
 30
0.0
 10
6597.368626389904
 20
5294.728482632108
 30
0.0
 10
6597.448478550089
 20
5294.704890353435
 30
0.0
 10
6596.937527180228
 20
5294.661283666042
 30
0.0
 10
6595.820090081
 20
5294.603324788349
 30
0.0
 10
6594.095782802768
 20
5294.547717064199
 30
0.0
 10
6591.909586121236
 20
5294.494712848171
 30
0.0
 10
6589.336753302584
 20
5294.437086136603
 30
0.0
 10
6586.512416375002
 20
5294.379457194404
 30
0.0
 10
6583.58729973204
 20
5294.326459281754
 30
0.0
 10
6580.792339515097
 20
5294.272835995166
 30
0.0
 10
6578.545644812081
 20
5294.225661193382
 30
0.0
 10
6576.483771473835
 20
5294.179154262745
 30
0.0
 10
6574.576171661858
 20
5294.133795681183
 30
0.0
 10
6572.782814950336
 20
5294.078813989392
 30
0.0
 10
6571.574044257924
 20
5294.020878538964
 30
0.0
 10
6570.982420690706
 20
5293.974275728029
 30
0.0
 10
6571.036892338238
 20
5293.948243788412
 30
0.0
 10
6571.053788194332
 20
5293.940169277624
 30
0.0
  0
SPLINE
  5
2F5
330
1F
100
AcDbEntity
  8
0
  6
Continuous
 62
     7
370
    25
100
AcDbSpline
210
0.0
220
0.0
230
1.0
 70
     8
 71
     3
 72
    23
 73
    19
 74
     0
 42
0.000000001
 43
0.00000001
 40
0.0
 40
0.0
 40
0.0
 40
0.0
 40
0.0219693922822852
 40
0.0923395860858405
 40
0.1634861707573927
 40
0.2336649376441722
 40
0.3030252814093891
 40
0.3739545488392861
 40
0.4448837661734429
 40
0.5142441531703499
 40
0.5844229016129651
 40
0.6479666722155809
 40
0.687126502568874
 40
0.7566480588505549
 40
0.8266152491517149
 40
0.8977400385567369
 40
0.9682813046593313
 40
1.0
 40
1.0
 40
1.0
 40
1.0
 10
6597.349628003213
 20
5293.146600487665
 30
0.0
 10
6597.368626392098
 20
5293.140984491382
 30
0.0
 10
6597.448478549291
 20
5293.117379888876
 30
0.0
 10
6596.937527167542
 20
5293.073793552423
 30
0.0
 10
6595.820090030254
 20
5293.015830787036
 30
0.0
 10
6594.095782864259
 20
5292.960212195069
 30
0.0
 10
6591.909586118503
 20
5292.907210562378
 30
0.0
 10
6589.336753286641
 20
5292.849584268059
 30
0.0
 10
6586.512416485538
 20
5292.79195104003
 30
0.0
 10
6583.587299535807
 20
5292.73896956593
 30
0.0
 10
6580.792339619926
 20
5292.685330157288
 30
0.0
 10
6578.545644803061
 20
5292.638159031523
 30
0.0
 10
6576.483771478105
 20
5292.591651317006
 30
0.0
 10
6574.576171655505
 20
5292.54629381113
 30
0.0
 10
6572.782814999893
 20
5292.491308613061
 30
0.0
 10
6571.574044220306
 20
5292.433386105853
 30
0.0
 10
6570.982420693211
 20
5292.386780248721
 30
0.0
 10
6571.036892338831
 20
5292.360748516345
 30
0.0
 10
6571.053788194332
 20
5292.352674069837
 30
0.0
  0
SPLINE
  5
2F6
330
1F
100
AcDbEntity
  8
0
  6
Continuous
 62
     7
370
    25
100
AcDbSpline
210
0.0
220
0.0
230
1.0
 70
     8
 71
     3
 72
    23
 73
    19
 74
     0
 42
0.000000001
 43
0.00000001
 40
0.0
 40
0.0
 40
0.0
 40
0.0
 40
0.021969392282585
 40
0.0923395860871007
 40
0.1634861707596237
 40
0.2336649376473609
 40
0.3030252780677999
 40
0.373954545498665
 40
0.4448837628337898
 40
0.5142441531773653
 40
0.5844229016209382
 40
0.6479666722244213
 40
0.6871264990876448
 40
0.7566480587323964
 40
0.8266152456282583
 40
0.8977400385553415
 40
0.9682813046588985
 40
1.0
 40
1.0
 40
1.0
 40
1.0
 10
6597.349628003213
 20
5291.559097829298
 30
0.0
 10
6597.36862639206
 20
5291.553481835619
 30
0.0
 10
6597.448478549091
 20
5291.529877244052
 30
0.0
 10
6596.93752717067
 20
5291.486290682717
 30
0.0
 10
6595.82009001886
 20
5291.428328898236
 30
0.0
 10
6594.095782933201
 20
5291.372706730177
 30
0.0
 10
6591.909586037161
 20
5291.319718348665
 30
0.0
 10
6589.336753311311
 20
5291.262087514129
 30
0.0
 10
6586.512416383805
 20
5291.204458952514
 30
0.0
 10
6583.58729964162
 20
5291.151463606827
 30
0.0
 10
6580.79233957926
 20
5291.097829943473
 30
0.0
 10
6578.545644928546
 20
5291.05065135434
 30
0.0
 10
6576.483771293849
 20
5291.004162805528
 30
0.0
 10
6574.576171826426
 20
5290.958783153797
 30
0.0
 10
6572.782814876428
 20
5290.903820140829
 30
0.0
 10
6571.57404427279
 20
5290.8458795757
 30
0.0
 10
6570.982420689253
 20
5290.799277969199
 30
0.0
 10
6571.036892337894
 20
5290.773245947667
 30
0.0
 10
6571.053788194332
 20
5290.76517141147
 30
0.0
  0
LINE
  5
2F7
330
1F
100
AcDbEntity
  8
0
  6
Continuous
 62
     7
370
    25
100
AcDbLine
 10
6597.3331137913
 20
5289.979321423
 30
0.0
 11
6597.3496280032
 21
5289.9715951709
 31
0.0
  0
SPLINE
  5
2F8
330
1F
100
AcDbEntity
  8
0
  6
Continuous
 62
     7
370
    25
100
AcDbSpline
210
0.0
220
0.0
230
1.0
 70
     8
 71
     3
 72
    20
 73
    16
 74
     0
 42
0.000000001
 43
0.00000001
 40
0.0
 40
0.0
 40
0.0
 40
0.0
 40
0.0182503213720301
 40
0.100619241737248
 40
0.1820275776990123
 40
0.2652773575290623
 40
0.3485270826715684
 40
0.4299354733013088
 40
0.5123043720185844
 40
0.5958091881488784
 40
0.6784028129983147
 40
0.7596849335463123
 40
0.8428076781291507
 40
0.9261592622781847
 40
1.0
 40
1.0
 40
1.0
 40
1.0
 10
6596.013861836765
 20
5297.394116881326
 30
0.0
 10
6595.914587176395
 20
5297.389919049469
 30
0.0
 10
6595.367257578933
 20
5297.366775201758
 30
0.0
 10
6594.094919811907
 20
5297.325836457027
 30
0.0
 10
6591.909822699586
 20
5297.272831028682
 30
0.0
 10
6589.336686960841
 20
5297.215216345691
 30
0.0
 10
6586.512441960449
 20
5297.157585015869
 30
0.0
 10
6583.587262658274
 20
5297.104584638771
 30
0.0
 10
6580.687829970442
 20
5297.048966198722
 30
0.0
 10
6577.94537991989
 20
5296.991001464693
 30
0.0
 10
6575.52215904882
 20
5296.934816616291
 30
0.0
 10
6573.516961878318
 20
5296.882176409222
 30
0.0
 10
6572.037527104424
 20
5296.824773723733
 30
0.0
 10
6571.125151164677
 20
5296.768828910114
 30
0.0
 10
6571.042280654878
 20
5296.734564200384
 30
0.0
 10
6571.003352420304
 20
5296.718468430475
 30
0.0
  0
LINE
  5
2F9
330
1F
100
AcDbEntity
  8
0
  6
Continuous
 62
     7
370
    25
100
AcDbLine
 10
6570.979171561
 20
5296.7133498816
 30
0.0
 11
6570.9972438755
 21
5296.7107198267
 31
0.0
  0
SPLINE
  5
2FA
330
1F
100
AcDbEntity
  8
0
  6
Continuous
 62
     7
370
    25
100
AcDbSpline
210
0.0
220
0.0
230
1.0
 70
     8
 71
     3
 72
    23
 73
    19
 74
     0
 42
0.000000001
 43
0.00000001
 40
0.0
 40
0.0
 40
0.0
 40
0.0
 40
0.0513702903688512
 40
0.0953217791416903
 40
0.1394588373298823
 40
0.1551639901627233
 40
0.2260458334720074
 40
0.2961010578203424
 40
0.3677409239589
 40
0.4393807394998376
 40
0.5094360108922165
 40
0.5803178355725541
 40
0.6521771674095516
 40
0.7232523851202309
 40
0.7931989959092395
 40
0.8647295394513052
 40
0.936457008860485
 40
1.0
 40
1.0
 40
1.0
 40
1.0
 10
6597.349020780895
 20
5295.916666748956
 30
0.0
 10
6597.321094116975
 20
5295.903654181195
 30
0.0
 10
6597.269273905889
 20
5295.879508296455
 30
0.0
 10
6596.744733804708
 20
5295.842100995798
 30
0.0
 10
6596.201869324378
 20
5295.814202570956
 30
0.0
 10
6595.360328924451
 20
5295.779281596239
 30
0.0
 10
6594.09764998116
 20
5295.738339870292
 30
0.0
 10
6591.909076294239
 20
5295.685338706358
 30
0.0
 10
6589.336889064034
 20
5295.627710719694
 30
0.0
 10
6586.512389161694
 20
5295.57008376639
 30
0.0
 10
6583.587276941545
 20
5295.517079292526
 30
0.0
 10
6580.687826003463
 20
5295.461473084952
 30
0.0
 10
6577.945380880954
 20
5295.40350825639
 30
0.0
 10
6575.522158851709
 20
5295.347311527289
 30
0.0
 10
6573.516961941055
 20
5295.294674259168
 30
0.0
 10
6572.037527087401
 20
5295.237271523705
 30
0.0
 10
6571.125151183408
 20
5295.181324008416
 30
0.0
 10
6571.042280660114
 20
5295.147065894005
 30
0.0
 10
6571.003352420304
 20
5295.130973222688
 30
0.0
  0
SPLINE
  5
2FB
330
1F
100
AcDbEntity
  8
0
  6
Continuous
 62
     7
370
    25
100
AcDbSpline
210
0.0
220
0.0
230
1.0
 70
     8
 71
     3
 72
    23
 73
    19
 74
     0
 42
0.000000001
 43
0.00000001
 40
0.0
 40
0.0
 40
0.0
 40
0.0
 40
0.0513702903820727
 40
0.0953217791662238
 40
0.1394588338070843
 40
0.1551639866439675
 40
0.2260458334331076
 40
0.296101057799473
 40
0.3677409239564691
 40
0.4393807395158451
 40
0.5094360075470135
 40
0.5803178357072081
 40
0.6521771675627004
 40
0.7232523818107386
 40
0.7931989959862255
 40
0.8647295360206793
 40
0.9364570054483201
 40
1.0
 40
1.0
 40
1.0
 40
1.0
 10
6597.349020780895
 20
5294.329164090589
 30
0.0
 10
6597.321094114522
 20
5294.316151830331
 30
0.0
 10
6597.269273898886
 20
5294.292006516192
 30
0.0
 10
6596.744733841493
 20
5294.254595404141
 30
0.0
 10
6596.201869297999
 20
5294.22670800686
 30
0.0
 10
6595.360328900781
 20
5294.191786201857
 30
0.0
 10
6594.097650046511
 20
5294.150834418373
 30
0.0
 10
6591.909076290373
 20
5294.097836585737
 30
0.0
 10
6589.336889048739
 20
5294.04020878394
 30
0.0
 10
6586.512389270805
 20
5293.982577712704
 30
0.0
 10
6583.587276750281
 20
5293.929589246437
 30
0.0
 10
6580.68782610077
 20
5293.873967889853
 30
0.0
 10
6577.945380960546
 20
5293.816002832345
 30
0.0
 10
6575.52215870169
 20
5293.759822182865
 30
0.0
 10
6573.516962069863
 20
5293.707165663532
 30
0.0
 10
6572.03752702883
 20
5293.649779348049
 30
0.0
 10
6571.12515117772
 20
5293.593830285417
 30
0.0
 10
6571.042280659047
 20
5293.559566091792
 30
0.0
 10
6571.003352420304
 20
5293.543470564321
 30
0.0
  0
SPLINE
  5
2FC
330
1F
100
AcDbEntity
  8
0
  6
Continuous
 62
     7
370
    25
100
AcDbSpline
210
0.0
220
0.0
230
1.0
 70
     8
 71
     3
 72
    23
 73
    19
 74
     0
 42
0.000000001
 43
0.00000001
 40
0.0
 40
0.0
 40
0.0
 40
0.0
 40
0.0513702871444498
 40
0.0953217760637592
 40
0.13945883439904
 40
0.1551639872842192
 40
0.2260458342913331
 40
0.296101055493887
 40
0.3677409218711879
 40
0.4393807376508685
 40
0.5094360092767097
 40
0.5803178376548781
 40
0.6521771697313501
 40
0.7232523841979567
 40
0.7931989952200655
 40
0.8647295390005101
 40
0.9364570086487252
 40
1.0
 40
1.0
 40
1.0
 40
1.0
 10
6597.349020780895
 20
5292.741661432222
 30
0.0
 10
6597.321094113194
 20
5292.728652053519
 30
0.0
 10
6597.269273893515
 20
5292.704512085605
 30
0.0
 10
6596.744733803625
 20
5292.667102778566
 30
0.0
 10
6596.201869327308
 20
5292.639204508811
 30
0.0
 10
6595.360328893969
 20
5292.604284344936
 30
0.0
 10
6594.097650119009
 20
5292.563328571968
 30
0.0
 10
6591.909076208196
 20
5292.510344466237
 30
0.0
 10
6589.336889073039
 20
5292.452712043201
 30
0.0
 10
6586.512389171375
 20
5292.395085478801
 30
0.0
 10
6583.587276847418
 20
5292.342083848036
 30
0.0
 10
6580.687826089426
 20
5292.286465750056
 30
0.0
 10
6577.945380953626
 20
5292.22850090849
 30
0.0
 10
6575.522158778193
 20
5292.172316142038
 30
0.0
 10
6573.516961952153
 20
5292.119675715948
 30
0.0
 10
6572.037527084393
 20
5292.062273841107
 30
0.0
 10
6571.125151184062
 20
5292.006326102383
 30
0.0
 10
6571.042280660323
 20
5291.972068015106
 30
0.0
 10
6571.003352420304
 20
5291.955975356535
 30
0.0
  0
SPLINE
  5
2FD
330
1F
100
AcDbEntity
  8
0
  6
Continuous
 62
     7
370
    25
100
AcDbSpline
210
0.0
220
0.0
230
1.0
 70
     8
 71
     3
 72
    23
 73
    19
 74
     0
 42
0.000000001
 43
0.00000001
 40
0.0
 40
0.0
 40
0.0
 40
0.0
 40
0.0513702903688512
 40
0.0953217791416903
 40
0.1394588373298823
 40
0.1551639901627233
 40
0.2260458334720074
 40
0.2961010578203424
 40
0.3677409239589
 40
0.4393807394998376
 40
0.5094360108922165
 40
0.5803178355725541
 40
0.6521771674095516
 40
0.7232523851202309
 40
0.7931989959092395
 40
0.8647295394513052
 40
0.936457008860485
 40
1.0
 40
1.0
 40
1.0
 40
1.0
 10
6597.349020780895
 20
5291.154166224435
 30
0.0
 10
6597.321094116975
 20
5291.141153656674
 30
0.0
 10
6597.269273905889
 20
5291.117007771934
 30
0.0
 10
6596.744733804708
 20
5291.079600471277
 30
0.0
 10
6596.201869324378
 20
5291.051702046435
 30
0.0
 10
6595.360328924451
 20
5291.016781071718
 30
0.0
 10
6594.09764998116
 20
5290.975839345771
 30
0.0
 10
6591.909076294239
 20
5290.922838181838
 30
0.0
 10
6589.336889064034
 20
5290.865210195173
 30
0.0
 10
6586.512389161694
 20
5290.807583241869
 30
0.0
 10
6583.587276941545
 20
5290.754578768006
 30
0.0
 10
6580.687826003463
 20
5290.698972560431
 30
0.0
 10
6577.945380880954
 20
5290.641007731869
 30
0.0
 10
6575.522158851709
 20
5290.584811002768
 30
0.0
 10
6573.516961941055
 20
5290.532173734647
 30
0.0
 10
6572.037527087401
 20
5290.474770999184
 30
0.0
 10
6571.125151183408
 20
5290.418823483895
 30
0.0
 10
6571.042280660114
 20
5290.384565369484
 30
0.0
 10
6571.003352420304
 20
5290.368472698167
 30
0.0
  0
SPLINE
  5
2FE
330
1F
100
AcDbEntity
  8
0
  6
Continuous
 62
     7
370
    25
100
AcDbSpline
210
0.0
220
0.0
230
1.0
 70
     8
 71
     3
 72
    16
 73
    12
 74
     0
 42
0.000000001
 43
0.00000001
 40
0.0
 40
0.0
 40
0.0
 40
0.0
 40
0.0646684003806799
 40
0.188294219847681
 40
0.3147197572200802
 40
0.4414934548337427
 40
0.5655990092683728
 40
0.6905002392293054
 40
0.8174680987090498
 40
0.9433942085746947
 40
1.0
 40
1.0
 40
1.0
 40
1.0
 10
6586.519579531524
 20
5298.253377440408
 30
0.0
 10
6586.056766242209
 20
5298.243845610103
 30
0.0
 10
6584.709198237842
 20
5298.216091892051
 30
0.0
 10
6582.409645506053
 20
5298.172028605286
 30
0.0
 10
6579.749574289193
 20
5298.114623545783
 30
0.0
 10
6577.301668607536
 20
5298.056838746024
 30
0.0
 10
6575.201850068271
 20
5298.003300492559
 30
0.0
 10
6573.524550598415
 20
5297.948355331762
 30
0.0
 10
6572.394489682129
 20
5297.890410048013
 30
0.0
 10
6571.841295017249
 20
5297.843811702257
 30
0.0
 10
6571.892216839577
 20
5297.817782347624
 30
0.0
 10
6571.90800843564
 20
5297.809710267023
 30
0.0
  0
SPLINE
  5
2FF
330
1F
100
AcDbEntity
  8
0
  6
Continuous
 62
     7
370
    25
100
AcDbSpline
210
0.0
220
0.0
230
1.0
 70
     8
 71
     3
 72
    23
 73
    19
 74
     0
 42
0.000000001
 43
0.00000001
 40
0.0
 40
0.0
 40
0.0
 40
0.0
 40
0.0114248586602463
 40
0.082555196196427
 40
0.1544704016645404
 40
0.2254071646527468
 40
0.2955166656838722
 40
0.3672121495136721
 40
0.4337689489593909
 40
0.4703862052827241
 40
0.5403869829880239
 40
0.611973047905803
 40
0.683756251962959
 40
0.7540286666161214
 40
0.8247516252841849
 40
0.8966447698188645
 40
0.9679480393705067
 40
1.0
 40
1.0
 40
1.0
 40
1.0
 10
6596.511173190448
 20
5297.007923486665
 30
0.0
 10
6596.518942942927
 20
5297.005031126553
 30
0.0
 10
6596.575086608195
 20
5296.984131143136
 30
0.0
 10
6596.101437569419
 20
5296.943290959071
 30
0.0
 10
6595.066761210878
 20
5296.885363352535
 30
0.0
 10
6593.451859059904
 20
5296.829740991571
 30
0.0
 10
6591.408406970701
 20
5296.776763973799
 30
0.0
 10
6589.060694261192
 20
5296.720430208048
 30
0.0
 10
6586.904133411268
 20
5296.6735078257
 30
0.0
 10
6584.706650527325
 20
5296.628655844626
 30
0.0
 10
6582.410521558188
 20
5296.584502805757
 30
0.0
 10
6579.749336431389
 20
5296.527128031422
 30
0.0
 10
6577.301730996906
 20
5296.469331023779
 30
0.0
 10
6575.20183327115
 20
5296.415810827811
 30
0.0
 10
6573.524555231608
 20
5296.360850261479
 30
0.0
 10
6572.394488451018
 20
5296.302903699157
 30
0.0
 10
6571.841295130287
 20
5296.256322246578
 30
0.0
 10
6571.892216864869
 20
5296.230282815187
 30
0.0
 10
6571.90800843564
 20
5296.222207608655
 30
0.0
  0
SPLINE
  5
300
330
1F
100
AcDbEntity
  8
0
  6
Continuous
 62
     7
370
    25
100
AcDbSpline
210
0.0
220
0.0
230
1.0
 70
     8
 71
     3
 72
    23
 73
    19
 74
     0
 42
0.000000001
 43
0.00000001
 40
0.0
 40
0.0
 40
0.0
 40
0.0
 40
0.0114248587072308
 40
0.0825551925513647
 40
0.1544703983152282
 40
0.2254071655576157
 40
0.2955166668770652
 40
0.3672121510017116
 40
0.4337689466691816
 40
0.4703862031431027
 40
0.5403869849921236
 40
0.6119730461681213
 40
0.6837562545792273
 40
0.7540286695213837
 40
0.8247516284802942
 40
0.8966447692397228
 40
0.9679480430886159
 40
1.0
 40
1.0
 40
1.0
 40
1.0
 10
6596.511173190448
 20
5295.420420828298
 30
0.0
 10
6596.518942943134
 20
5295.417528431614
 30
0.0
 10
6596.575086607181
 20
5295.396628184941
 30
0.0
 10
6596.10143755089
 20
5295.355798226565
 30
0.0
 10
6595.066761156665
 20
5295.297870116669
 30
0.0
 10
6593.451859130949
 20
5295.2422356616
 30
0.0
 10
6591.408406946744
 20
5295.18926277935
 30
0.0
 10
6589.060694368582
 20
5295.132924451608
 30
0.0
 10
6586.90413334571
 20
5295.08601334634
 30
0.0
 10
6584.706650455208
 20
5295.041161803
 30
0.0
 10
6582.4105217817
 20
5294.99699387133
 30
0.0
 10
6579.749336212906
 20
5294.939639153446
 30
0.0
 10
6577.301731108798
 20
5294.881824493103
 30
0.0
 10
6575.201833246429
 20
5294.828310167993
 30
0.0
 10
6573.524555291376
 20
5294.773343405272
 30
0.0
 10
6572.394488380796
 20
5294.715416019158
 30
0.0
 10
6571.84129514325
 20
5294.668813460748
 30
0.0
 10
6571.892216869403
 20
5294.642784392619
 30
0.0
 10
6571.90800843564
 20
5294.634712400869
 30
0.0
  0
SPLINE
  5
301
330
1F
100
AcDbEntity
  8
0
  6
Continuous
 62
     7
370
    25
100
AcDbSpline
210
0.0
220
0.0
230
1.0
 70
     8
 71
     3
 72
    23
 73
    19
 74
     0
 42
0.000000001
 43
0.00000001
 40
0.0
 40
0.0
 40
0.0
 40
0.0
 40
0.0114248625162867
 40
0.0825551960629454
 40
0.1544704015260512
 40
0.225407168471773
 40
0.2955166656298486
 40
0.3672121494546562
 40
0.4337689488957405
 40
0.470386205216524
 40
0.5403869829169494
 40
0.6119730478297438
 40
0.6837562518819015
 40
0.7540286704172989
 40
0.8247516251422926
 40
0.8966447696719662
 40
0.9679480432226608
 40
1.0
 40
1.0
 40
1.0
 40
1.0
 10
6596.511173190448
 20
5293.832925620512
 30
0.0
 10
6596.518942944199
 20
5293.83003054694
 30
0.0
 10
6596.575086599611
 20
5293.809110963355
 30
0.0
 10
6596.10143756199
 20
5293.768301498468
 30
0.0
 10
6595.066761143797
 20
5293.710366531797
 30
0.0
 10
6593.451859199895
 20
5293.65473088806
 30
0.0
 10
6591.408406879631
 20
5293.601769464804
 30
0.0
 10
6589.060694273296
 20
5293.545431485942
 30
0.0
 10
6586.904133409544
 20
5293.498510081444
 30
0.0
 10
6584.706650528412
 20
5293.453657901819
 30
0.0
 10
6582.410521554446
 20
5293.409505202467
 30
0.0
 10
6579.749336444668
 20
5293.352129232652
 30
0.0
 10
6577.301730903419
 20
5293.294336594626
 30
0.0
 10
6575.201833415173
 20
5293.240800402939
 30
0.0
 10
6573.524555163177
 20
5293.185854688031
 30
0.0
 10
6572.394488435877
 20
5293.127909556039
 30
0.0
 10
6571.84129513912
 20
5293.081311174554
 30
0.0
 10
6571.892216868426
 20
5293.05528182235
 30
0.0
 10
6571.90800843564
 20
5293.047209742502
 30
0.0
  0
SPLINE
  5
302
330
1F
100
AcDbEntity
  8
0
  6
Continuous
 62
     7
370
    25
100
AcDbSpline
210
0.0
220
0.0
230
1.0
 70
     8
 71
     3
 72
    23
 73
    19
 74
     0
 42
0.000000001
 43
0.00000001
 40
0.0
 40
0.0
 40
0.0
 40
0.0
 40
0.0114248586602463
 40
0.082555196196427
 40
0.1544704016645404
 40
0.2254071646527468
 40
0.2955166656838722
 40
0.3672121495136721
 40
0.4337689489593909
 40
0.4703862052827241
 40
0.5403869829880239
 40
0.611973047905803
 40
0.683756251962959
 40
0.7540286666161214
 40
0.8247516252841849
 40
0.8966447698188645
 40
0.9679480393705067
 40
1.0
 40
1.0
 40
1.0
 40
1.0
 10
6596.511173190448
 20
5292.245422962144
 30
0.0
 10
6596.518942942927
 20
5292.242530602032
 30
0.0
 10
6596.575086608195
 20
5292.221630618616
 30
0.0
 10
6596.101437569419
 20
5292.180790434551
 30
0.0
 10
6595.066761210878
 20
5292.122862828014
 30
0.0
 10
6593.451859059904
 20
5292.06724046705
 30
0.0
 10
6591.408406970701
 20
5292.014263449278
 30
0.0
 10
6589.060694261192
 20
5291.957929683527
 30
0.0
 10
6586.904133411268
 20
5291.911007301179
 30
0.0
 10
6584.706650527325
 20
5291.866155320105
 30
0.0
 10
6582.410521558188
 20
5291.822002281237
 30
0.0
 10
6579.749336431389
 20
5291.764627506901
 30
0.0
 10
6577.301730996906
 20
5291.706830499258
 30
0.0
 10
6575.20183327115
 20
5291.65331030329
 30
0.0
 10
6573.524555231608
 20
5291.598349736958
 30
0.0
 10
6572.394488451018
 20
5291.540403174637
 30
0.0
 10
6571.841295130287
 20
5291.493821722057
 30
0.0
 10
6571.892216864869
 20
5291.467782290666
 30
0.0
 10
6571.90800843564
 20
5291.459707084135
 30
0.0
  0
SPLINE
  5
303
330
1F
100
AcDbEntity
  8
0
  6
Continuous
 62
     7
370
    25
100
AcDbSpline
210
0.0
220
0.0
230
1.0
 70
     8
 71
     3
 72
    23
 73
    19
 74
     0
 42
0.000000001
 43
0.00000001
 40
0.0
 40
0.0
 40
0.0
 40
0.0
 40
0.0117643898103948
 40
0.0850086194441749
 40
0.1590610463127346
 40
0.2321059568113226
 40
0.3042990161803961
 40
0.378125191584516
 40
0.4466599637710069
 40
0.4843654347956741
 40
0.5564465437010369
 40
0.6301600442568203
 40
0.7040765509926612
 40
0.7764373655534671
 40
0.849262113680163
 40
0.9232918198026732
 40
0.9967141289805365
 40
1.0
 40
1.0
 40
1.0
 40
1.0
 10
6596.511173190448
 20
5290.657920303777
 30
0.0
 10
6596.518942943144
 20
5290.655027907093
 30
0.0
 10
6596.575086607262
 20
5290.63412766042
 30
0.0
 10
6596.101437548225
 20
5290.593297702043
 30
0.0
 10
6595.066761166237
 20
5290.53536959215
 30
0.0
 10
6593.45185909606
 20
5290.479735137071
 30
0.0
 10
6591.40840707651
 20
5290.426762254858
 30
0.0
 10
6589.060693886947
 20
5290.370423926985
 30
0.0
 10
6586.904134687143
 20
5290.323512822104
 30
0.0
 10
6584.706646932577
 20
5290.278661277733
 30
0.0
 10
6582.410549883324
 20
5290.234493352767
 30
0.0
 10
6579.749230660314
 20
5290.177138606552
 30
0.0
 10
6577.302121884291
 20
5290.119324051415
 30
0.0
 10
6575.200405474784
 20
5290.065809340826
 30
0.0
 10
6573.529963155802
 20
5290.010844027061
 30
0.0
 10
6572.374008619839
 20
5289.952911153528
 30
0.0
 10
6571.977551626275
 20
5289.913997287278
 30
0.0
 10
6571.889123302559
 20
5289.89493321189
 30
0.0
 10
6571.885335387561
 20
5289.894116583303
 30
0.0
  0
LINE
  5
304
330
1F
100
AcDbEntity
  8
0
  6
Continuous
 62
     7
370
    25
100
AcDbLine
 10
6570.6723184678
 20
5289.8941165833
 30
0.0
 11
6570.6723184678
 21
5279.3941176562
 31
0.0
  0
LINE
  5
305
330
1F
100
AcDbEntity
  8
0
  6
Continuous
 62
     7
370
    25
100
AcDbLine
 10
6570.6723184678
 20
5289.8941165833
 30
0.0
 11
6570.7214261758
 21
5289.8941165833
 31
0.0
  0
LINE
  5
306
330
1F
100
AcDbEntity
  8
0
  6
Continuous
 62
     8
370
    25
100
AcDbLine
 10
6628.2968066054
 20
5163.0166559546
 30
0.0
 11
6628.6968059259
 21
5163.0166559546
 31
0.0
  0
LINE
  5
307
330
1F
100
AcDbEntity
  8
0
  6
Continuous
 62
     8
370
    25
100
AcDbLine
 10
6628.2968066054
 20
5264.7715783743
 30
0.0
 11
6628.6968059259
 21
5264.7715783743
 31
0.0
  0
LINE
  5
308
330
1F
100
AcDbEntity
  8
0
  6
Continuous
 62
     8
370
    25
100
AcDbLine
 10
6631.284504326
 20
5268.3941177158
 30
0.0
 11
6631.696804555
 21
5268.3941177158
 31
0.0
  0
LINE
  5
309
330
1F
100
AcDbEntity
  8
0
  6
Continuous
 62
     8
370
    25
100
AcDbLine
 10
6631.284504326
 20
5158.3941183118
 30
0.0
 11
6631.696804555
 21
5158.3941183118
 31
0.0
  0
LINE
  5
30A
330
1F
100
AcDbEntity
  8
0
  6
Continuous
 62
     8
370
    25
100
AcDbLine
 10
6628.6968059259
 20
5268.3941177158
 30
0.0
 11
6631.284504326
 21
5268.3941177158
 31
0.0
  0
LINE
  5
30B
330
1F
100
AcDbEntity
  8
0
  6
Continuous
 62
     8
370
    25
100
AcDbLine
 10
6628.6968059259
 20
5158.3941183118
 30
0.0
 11
6631.284504326
 21
5158.3941183118
 31
0.0
  0
LINE
  5
30C
330
1F
100
AcDbEntity
  8
0
  6
Continuous
 62
     8
370
    25
100
AcDbLine
 10
6640.363468917
 20
5285.7797346143
 30
0.0
 11
6640.363468917
 21
5141.0085014133
 31
0.0
  0
LINE
  5
30D
330
1F
100
AcDbEntity
  8
0
  6
Continuous
 62
     8
370
    25
100
AcDbLine
 10
6601.5968053955
 20
5280.29411799
 30
0.0
 11
6614.7968053239
 21
5280.29411799
 31
0.0
  0
LINE
  5
30E
330
1F
100
AcDbEntity
  8
0
  6
Continuous
 62
     7
370
    25
100
AcDbLine
 10
6339.5187539652
 20
4859.5133244037
 30
0.0
 11
6339.5187539652
 21
4929.1133253812
 31
0.0
  0
LINE
  5
30F
330
1F
100
AcDbEntity
  8
0
  6
Continuous
 62
     7
370
    25
100
AcDbLine
 10
6208.518756707
 20
4929.1133253812
 30
0.0
 11
6208.518756707
 21
4859.5133244037
 31
0.0
  0
SPLINE
  5
310
330
1F
100
AcDbEntity
  8
0
  6
Continuous
 62
     7
370
    25
100
AcDbSpline
210
0.0
220
0.0
230
1.0
 70
     8
 71
     3
 72
    13
 73
     9
 74
     0
 42
0.000000001
 43
0.00000001
 40
0.0
 40
0.0
 40
0.0
 40
0.0
 40
0.007829848255491
 40
0.2540530732879085
 40
0.5241493937502679
 40
0.8242170573279214
 40
0.9876064208687134
 40
1.0
 40
1.0
 40
1.0
 40
1.0
 10
6245.538352210814
 20
4881.371144854985
 30
0.0
 10
6245.528061548725
 20
4881.37100826371
 30
0.0
 10
6245.194163081639
 20
4881.36657632174
 30
0.0
 10
6244.708668180649
 20
4881.357414950912
 30
0.0
 10
6244.094433166612
 20
4881.328578534142
 30
0.0
 10
6243.826596812803
 20
4881.232532124822
 30
0.0
 10
6243.656306072558
 20
4881.19563350537
 30
0.0
 10
6243.661255981734
 20
4881.13909311733
 30
0.0
 10
6243.661604975158
 20
4881.135106736384
 30
0.0
  0
SPLINE
  5
311
330
1F
100
AcDbEntity
  8
0
  6
Continuous
 62
     7
370
    25
100
AcDbSpline
210
0.0
220
0.0
230
1.0
 70
     8
 71
     3
 72
    11
 73
     7
 74
     0
 42
0.000000001
 43
0.00000001
 40
0.0
 40
0.0
 40
0.0
 40
0.0
 40
0.2844428312621893
 40
0.6082052431271494
 40
0.9874118009738838
 40
0.9999999999999999
 40
0.9999999999999999
 40
0.9999999999999999
 40
0.9999999999999999
 10
6241.952968914801
 20
4877.588123732768
 30
0.0
 10
6242.201489889922
 20
4877.534929205664
 30
0.0
 10
6242.732885810234
 20
4877.421186875976
 30
0.0
 10
6243.842263361432
 20
4877.33518549371
 30
0.0
 10
6244.7123314814
 20
4877.302346116751
 30
0.0
 10
6245.261242028359
 20
4877.305666134419
 30
0.0
 10
6245.278878290946
 20
4877.305772805176
 30
0.0
  0
LINE
  5
312
330
1F
100
AcDbEntity
  8
0
  6
Continuous
 62
     7
370
    25
100
AcDbLine
 10
6353.7687567666
 20
4859.1133250832
 30
0.0
 11
6329.0187550381
 21
4859.1133250832
 31
0.0
  0
LINE
  5
313
330
1F
100
AcDbEntity
  8
0
  6
Continuous
 62
     7
370
    25
100
AcDbLine
 10
6219.0187556341
 20
4859.1133250832
 30
0.0
 11
6194.2687539056
 21
4859.1133250832
 31
0.0
  0
LINE
  5
314
330
1F
100
AcDbEntity
  8
0
  6
Continuous
 62
     7
370
    25
100
AcDbLine
 10
6329.0187550381
 20
4859.1133250832
 30
0.0
 11
6219.0187556341
 21
4859.1133250832
 31
0.0
  0
ARC
  5
315
330
1F
100
AcDbEntity
  8
0
  6
Continuous
 62
     7
370
    25
100
AcDbCircle
 10
6200.6903282114
 20
4847.1133253812
 30
0.0
 40
1.000000000000906
100
AcDbArc
 50
19.4712206345
 51
90.0
  0
ARC
  5
316
330
1F
100
AcDbEntity
  8
0
  6
Continuous
 62
     7
370
    25
100
AcDbCircle
 10
6347.3471824608
 20
4847.1133253812
 30
0.0
 40
1.000000000000906
100
AcDbArc
 50
90.0
 51
160.5287793655
  0
ARC
  5
317
330
1F
100
AcDbEntity
  8
0
  6
Continuous
 62
     7
370
    25
100
AcDbCircle
 10
6344.5187553361
 20
4848.1133253812
 30
0.0
 40
1.999999999999241
100
AcDbArc
 50
270.0
 51
340.5287793655
  0
ARC
  5
318
330
1F
100
AcDbEntity
  8
0
  6
Continuous
 62
     7
370
    25
100
AcDbCircle
 10
6203.5187553361
 20
4848.1133253812
 30
0.0
 40
1.999999999999241
100
AcDbArc
 50
199.4712206345
 51
270.0
  0
LINE
  5
319
330
1F
100
AcDbEntity
  8
0
  6
Continuous
 62
     7
370
    25
100
AcDbLine
 10
6284.0774163276
 20
4846.1133285403
 30
0.0
 11
6284.0774163276
 21
4846.1070775032
 31
0.0
  0
LINE
  5
31A
330
1F
100
AcDbEntity
  8
0
  6
Continuous
 62
     7
370
    25
100
AcDbLine
 10
6284.8927333623
 20
4846.1070775032
 30
0.0
 11
6284.8927333623
 21
4846.1133285403
 31
0.0
  0
LINE
  5
31B
330
1F
100
AcDbEntity
  8
0
  6
Continuous
 62
     7
370
    25
100
AcDbLine
 10
6282.1786870852
 20
4846.1133285403
 30
0.0
 11
6282.1786870852
 21
4846.1070775032
 31
0.0
  0
LINE
  5
31C
330
1F
100
AcDbEntity
  8
0
  6
Continuous
 62
     7
370
    25
100
AcDbLine
 10
6282.4164677083
 20
4846.1070775032
 30
0.0
 11
6282.4164677083
 21
4846.1133285403
 31
0.0
  0
LINE
  5
31D
330
1F
100
AcDbEntity
  8
0
  6
Continuous
 62
     7
370
    25
100
AcDbLine
 10
6281.6150702208
 20
4846.1070775032
 30
0.0
 11
6281.6150702208
 21
4846.1133285403
 31
0.0
  0
LINE
  5
31E
330
1F
100
AcDbEntity
  8
0
  6
Continuous
 62
     7
370
    25
100
AcDbLine
 10
6281.5856297173
 20
4846.1070775032
 30
0.0
 11
6281.5856297173
 21
4846.1133285403
 31
0.0
  0
LINE
  5
31F
330
1F
100
AcDbEntity
  8
0
  6
Continuous
 62
     7
370
    25
100
AcDbLine
 10
6283.6150873125
 20
4846.1070775032
 30
0.0
 11
6283.6150873125
 21
4846.1133285403
 31
0.0
  0
LINE
  5
320
330
1F
100
AcDbEntity
  8
0
  6
Continuous
 62
     7
370
    25
100
AcDbLine
 10
6281.8351771355
 20
4846.1133285403
 30
0.0
 11
6281.8351771355
 21
4846.1070775032
 31
0.0
  0
LINE
  5
321
330
1F
100
AcDbEntity
  8
0
  6
Continuous
 62
     7
370
    25
100
AcDbLine
 10
6281.8738242283
 20
4846.1070775032
 30
0.0
 11
6281.8738242283
 21
4846.1133285403
 31
0.0
  0
LINE
  5
322
330
1F
100
AcDbEntity
  8
0
  6
Continuous
 62
     7
370
    25
100
AcDbLine
 10
6271.4687552441
 20
4904.2633256852
 30
0.0
 11
6270.0719210923
 21
4904.2633256852
 31
0.0
  0
LINE
  5
323
330
1F
100
AcDbEntity
  8
0
  6
Continuous
 62
     7
370
    25
100
AcDbLine
 10
6270.0719210923
 20
4902.9633260309
 30
0.0
 11
6271.4687552441
 21
4902.9633260309
 31
0.0
  0
LINE
  5
324
330
1F
100
AcDbEntity
  8
0
  6
Continuous
 62
     7
370
    25
100
AcDbLine
 10
6223.1412959889
 20
4859.5133244037
 30
0.0
 11
6324.8962146833
 21
4859.5133244037
 31
0.0
  0
LINE
  5
325
330
1F
100
AcDbEntity
  8
0
  6
Continuous
 62
     7
370
    25
100
AcDbLine
 10
6204.0187550381
 20
4859.5133244037
 30
0.0
 11
6204.0187550381
 21
4859.1133250832
 31
0.0
  0
LINE
  5
326
330
1F
100
AcDbEntity
  8
0
  6
Continuous
 62
     7
370
    25
100
AcDbLine
 10
6223.1412959889
 20
4859.5133244037
 30
0.0
 11
6204.0187550381
 21
4859.5133244037
 31
0.0
  0
LINE
  5
327
330
1F
100
AcDbEntity
  8
0
  6
Continuous
 62
     7
370
    25
100
AcDbLine
 10
6324.8962146833
 20
4859.5133244037
 30
0.0
 11
6344.0187556341
 21
4859.5133244037
 31
0.0
  0
LINE
  5
328
330
1F
100
AcDbEntity
  8
0
  6
Continuous
 62
     7
370
    25
100
AcDbLine
 10
6344.0187556341
 20
4859.5133244037
 30
0.0
 11
6344.0187556341
 21
4859.1133250832
 31
0.0
  0
LINE
  5
329
330
1F
100
AcDbEntity
  8
0
  6
Continuous
 62
     7
370
    25
100
AcDbLine
 10
6225.0040379956
 20
4859.5133244037
 30
0.0
 11
6225.0040379956
 21
4929.1133253812
 31
0.0
  0
LINE
  5
32A
330
1F
100
AcDbEntity
  8
0
  6
Continuous
 62
     7
370
    25
100
AcDbLine
 10
6323.0334726766
 20
4929.1133253812
 30
0.0
 11
6225.0040379956
 21
4929.1133253812
 31
0.0
  0
LINE
  5
32B
330
1F
100
AcDbEntity
  8
0
  6
Continuous
 62
     7
370
    25
100
AcDbLine
 10
6323.0334726766
 20
4859.5133244037
 30
0.0
 11
6323.0334726766
 21
4929.1133253812
 31
0.0
  0
LINE
  5
32C
330
1F
100
AcDbEntity
  8
0
  6
Continuous
 62
     7
370
    25
100
AcDbLine
 10
6328.4476866618
 20
4929.1133253812
 30
0.0
 11
6323.0334726766
 21
4929.1133253812
 31
0.0
  0
LINE
  5
32D
330
1F
100
AcDbEntity
  8
0
  6
Continuous
 62
     7
370
    25
100
AcDbLine
 10
6328.4476866618
 20
4859.5133244037
 30
0.0
 11
6328.4476866618
 21
4929.1133253812
 31
0.0
  0
LINE
  5
32E
330
1F
100
AcDbEntity
  8
0
  6
Continuous
 62
     7
370
    25
100
AcDbLine
 10
6219.5898240104
 20
4929.1133253812
 30
0.0
 11
6225.0040379956
 21
4929.1133253812
 31
0.0
  0
LINE
  5
32F
330
1F
100
AcDbEntity
  8
0
  6
Continuous
 62
     7
370
    25
100
AcDbLine
 10
6219.5898240104
 20
4859.5133244037
 30
0.0
 11
6219.5898240104
 21
4929.1133253812
 31
0.0
  0
LINE
  5
330
330
1F
100
AcDbEntity
  8
0
  6
Continuous
 62
     7
370
    25
100
AcDbLine
 10
6332.6903266504
 20
4859.5133244037
 30
0.0
 11
6332.6903266504
 21
4929.1133253812
 31
0.0
  0
LINE
  5
331
330
1F
100
AcDbEntity
  8
0
  6
Continuous
 62
     7
370
    25
100
AcDbLine
 10
6339.5187539652
 20
4929.1133253812
 30
0.0
 11
6332.6903266504
 21
4929.1133253812
 31
0.0
  0
LINE
  5
332
330
1F
100
AcDbEntity
  8
0
  6
Continuous
 62
     7
370
    25
100
AcDbLine
 10
6215.3471840218
 20
4859.5133244037
 30
0.0
 11
6215.3471840218
 21
4929.1133253812
 31
0.0
  0
LINE
  5
333
330
1F
100
AcDbEntity
  8
0
  6
Continuous
 62
     7
370
    25
100
AcDbLine
 10
6208.518756707
 20
4929.1133253812
 30
0.0
 11
6215.3471840218
 21
4929.1133253812
 31
0.0
  0
LINE
  5
334
330
1F
100
AcDbEntity
  8
0
  6
Continuous
 62
     7
370
    25
100
AcDbLine
 10
6215.3471840218
 20
4929.1133253812
 30
0.0
 11
6219.5898240104
 21
4929.1133253812
 31
0.0
  0
LINE
  5
335
330
1F
100
AcDbEntity
  8
0
  6
Continuous
 62
     7
370
    25
100
AcDbLine
 10
6332.6903266504
 20
4929.1133253812
 30
0.0
 11
6328.4476866618
 21
4929.1133253812
 31
0.0
  0
LINE
  5
336
330
1F
100
AcDbEntity
  8
0
  6
Continuous
 62
     7
370
    25
100
AcDbLine
 10
6339.5187539652
 20
4859.5133244037
 30
0.0
 11
6339.5187539652
 21
4929.1133253812
 31
0.0
  0
LINE
  5
337
330
1F
100
AcDbEntity
  8
0
  6
Continuous
 62
     7
370
    25
100
AcDbLine
 10
6208.518756707
 20
4859.5133244037
 30
0.0
 11
6208.518756707
 21
4929.1133253812
 31
0.0
  0
CIRCLE
  5
338
330
1F
100
AcDbEntity
  8
0
  6
Continuous
 62
     7
370
    25
100
AcDbCircle
 10
6242.0189658716
 20
4879.6131167169
 30
0.0
 40
2.037114382258435
  0
LINE
  5
339
330
1F
100
AcDbEntity
  8
0
  6
Continuous
 62
     7
370
    25
100
AcDbLine
 10
6329.0187550381
 20
4856.5256266832
 30
0.0
 11
6219.0187556341
 21
4856.5256266832
 31
0.0
  0
LINE
  5
33A
330
1F
100
AcDbEntity
  8
0
  6
Continuous
 62
     7
370
    25
100
AcDbLine
 10
6356.7402867272
 20
4856.5256266832
 30
0.0
 11
6329.0187550381
 21
4856.5256266832
 31
0.0
  0
LINE
  5
33B
330
1F
100
AcDbEntity
  8
0
  6
Continuous
 62
     7
370
    25
100
AcDbLine
 10
6356.7402867272
 20
4856.5256266832
 30
0.0
 11
6356.7974922851
 21
4856.1133264541
 31
0.0
  0
LINE
  5
33C
330
1F
100
AcDbEntity
  8
0
  6
Continuous
 62
     7
370
    25
100
AcDbLine
 10
6191.297223945
 20
4856.5256266832
 30
0.0
 11
6191.2400183871
 21
4856.1133264541
 31
0.0
  0
LINE
  5
33D
330
1F
100
AcDbEntity
  8
0
  6
Continuous
 62
     7
370
    25
100
AcDbLine
 10
6219.0187556341
 20
4856.5256266832
 30
0.0
 11
6191.297223945
 21
4856.5256266832
 31
0.0
  0
ARC
  5
33E
330
1F
100
AcDbEntity
  8
0
  6
Continuous
 62
     7
370
    25
100
AcDbCircle
 10
6353.7687553361
 20
4856.1133253812
 30
0.0
 40
3.0
100
AcDbArc
 50
7.8994336573
 51
90.0
  0
ARC
  5
33F
330
1F
100
AcDbEntity
  8
0
  6
Continuous
 62
     7
370
    25
100
AcDbCircle
 10
6194.2687553361
 20
4856.1133253812
 30
0.0
 40
3.0
100
AcDbArc
 50
90.0
 51
172.1005663427
  0
LINE
  5
340
330
1F
100
AcDbEntity
  8
0
  6
Continuous
 62
     7
370
    25
100
AcDbLine
 10
6359.0187562302
 20
4850.1133217454
 30
0.0
 11
6359.0187562302
 21
4856.1133264541
 31
0.0
  0
LINE
  5
341
330
1F
100
AcDbEntity
  8
0
  6
Continuous
 62
     7
370
    25
100
AcDbLine
 10
6329.0187550381
 20
4850.1133217454
 30
0.0
 11
6359.0187562302
 21
4850.1133217454
 31
0.0
  0
LINE
  5
342
330
1F
100
AcDbEntity
  8
0
  6
Continuous
 62
     7
370
    25
100
AcDbLine
 10
6329.0187550381
 20
4850.1133217454
 30
0.0
 11
6329.0187550381
 21
4856.1133264541
 31
0.0
  0
LINE
  5
343
330
1F
100
AcDbEntity
  8
0
  6
Continuous
 62
     7
370
    25
100
AcDbLine
 10
6359.0187562302
 20
4856.1133264541
 30
0.0
 11
6329.0187550381
 21
4856.1133264541
 31
0.0
  0
LINE
  5
344
330
1F
100
AcDbEntity
  8
0
  6
Continuous
 62
     7
370
    25
100
AcDbLine
 10
6219.0187556341
 20
4850.1133217454
 30
0.0
 11
6219.0187556341
 21
4856.1133264541
 31
0.0
  0
LINE
  5
345
330
1F
100
AcDbEntity
  8
0
  6
Continuous
 62
     7
370
    25
100
AcDbLine
 10
6189.018754442
 20
4850.1133217454
 30
0.0
 11
6219.0187556341
 21
4850.1133217454
 31
0.0
  0
LINE
  5
346
330
1F
100
AcDbEntity
  8
0
  6
Continuous
 62
     7
370
    25
100
AcDbLine
 10
6189.018754442
 20
4850.1133217454
 30
0.0
 11
6189.018754442
 21
4856.1133264541
 31
0.0
  0
LINE
  5
347
330
1F
100
AcDbEntity
  8
0
  6
Continuous
 62
     7
370
    25
100
AcDbLine
 10
6219.0187556341
 20
4856.1133264541
 30
0.0
 11
6189.018754442
 21
4856.1133264541
 31
0.0
  0
LINE
  5
348
330
1F
100
AcDbEntity
  8
0
  6
Continuous
 62
     7
370
    25
100
AcDbLine
 10
6219.0187556341
 20
4850.1133217454
 30
0.0
 11
6329.0187550381
 21
4850.1133217454
 31
0.0
  0
LINE
  5
349
330
1F
100
AcDbEntity
  8
0
  6
Continuous
 62
     7
370
    25
100
AcDbLine
 10
6329.0187550381
 20
4856.1133264541
 30
0.0
 11
6219.0187556341
 21
4856.1133264541
 31
0.0
  0
LINE
  5
34A
330
1F
100
AcDbEntity
  8
0
  6
Continuous
 62
     7
370
    25
100
AcDbLine
 10
6329.0187550381
 20
4848.1133251428
 30
0.0
 11
6219.0187556341
 21
4848.1133251428
 31
0.0
  0
LINE
  5
34B
330
1F
100
AcDbEntity
  8
0
  6
Continuous
 62
     7
370
    25
100
AcDbLine
 10
6219.0187556341
 20
4848.1133251428
 30
0.0
 11
6219.0187556341
 21
4850.1133217454
 31
0.0
  0
LINE
  5
34C
330
1F
100
AcDbEntity
  8
0
  6
Continuous
 62
     7
370
    25
100
AcDbLine
 10
6329.0187550381
 20
4848.1133251428
 30
0.0
 11
6329.0187550381
 21
4850.1133217454
 31
0.0
  0
LINE
  5
34D
330
1F
100
AcDbEntity
  8
0
  6
Continuous
 62
     7
370
    25
100
AcDbLine
 10
6357.0187521771
 20
4848.1133251428
 30
0.0
 11
6329.0187550381
 21
4848.1133251428
 31
0.0
  0
ARC
  5
34E
330
1F
100
AcDbEntity
  8
0
  6
Continuous
 62
     7
370
    25
100
AcDbCircle
 10
6357.0187553361
 20
4850.1133253812
 30
0.0
 40
2.0
100
AcDbArc
 50
270.0
 51
0.0
  0
LINE
  5
34F
330
1F
100
AcDbEntity
  8
0
  6
Continuous
 62
     7
370
    25
100
AcDbLine
 10
6219.0187556341
 20
4848.1133251428
 30
0.0
 11
6191.0187584951
 21
4848.1133251428
 31
0.0
  0
ARC
  5
350
330
1F
100
AcDbEntity
  8
0
  6
Continuous
 62
     7
370
    25
100
AcDbCircle
 10
6191.0187553361
 20
4850.1133253812
 30
0.0
 40
2.0
100
AcDbArc
 50
180.0
 51
270.0
  0
LINE
  5
351
330
1F
100
AcDbEntity
  8
0
  6
Continuous
 62
     7
370
    25
100
AcDbLine
 10
6344.5187566474
 20
4846.1133285403
 30
0.0
 11
6203.5187540248
 21
4846.1133285403
 31
0.0
  0
CIRCLE
  5
352
330
1F
100
AcDbEntity
  8
0
  6
Continuous
 62
     7
370
    25
100
AcDbCircle
 10
6242.0187553361
 20
4879.6133253812
 30
0.0
 40
5.800000000000174
  0
CIRCLE
  5
353
330
1F
100
AcDbEntity
  8
0
  6
Continuous
 62
     7
370
    25
100
AcDbCircle
 10
6242.0187553361
 20
4879.6133253812
 30
0.0
 40
6.600000000000111
  0
CIRCLE
  5
354
330
1F
100
AcDbEntity
  8
0
  6
Continuous
 62
     7
370
    25
100
AcDbCircle
 10
6242.0187553361
 20
4879.6133253812
 30
0.0
 40
3.999999999999978
  0
LINE
  5
355
330
1F
100
AcDbEntity
  8
0
  6
Continuous
 62
     7
370
    25
100
AcDbLine
 10
6271.4687552441
 20
4904.2633256852
 30
0.0
 11
6271.4687552441
 21
4902.9633260309
 31
0.0
  0
CIRCLE
  5
356
330
1F
100
AcDbEntity
  8
0
  6
Continuous
 62
     7
370
    25
100
AcDbCircle
 10
6274.0187553361
 20
4903.6133253812
 30
0.0
 40
7.500000000000155
  0
CIRCLE
  5
357
330
1F
100
AcDbEntity
  8
0
  6
Continuous
 62
     7
370
    25
100
AcDbCircle
 10
6274.0187553361
 20
4903.6133253812
 30
0.0
 40
7.199999999999713
  0
CIRCLE
  5
358
330
1F
100
AcDbEntity
  8
0
  6
Continuous
 62
     7
370
    25
100
AcDbCircle
 10
6274.0187553361
 20
4903.6133253812
 30
0.0
 40
3.999999999999661
  0
CIRCLE
  5
359
330
1F
100
AcDbEntity
  8
0
  6
Continuous
 62
     7
370
    25
100
AcDbCircle
 10
6274.0187553361
 20
4903.6133253812
 30
0.0
 40
9.30000000000007
  0
CIRCLE
  5
35A
330
1F
100
AcDbEntity
  8
0
  6
Continuous
 62
     7
370
    25
100
AcDbCircle
 10
6274.0187553361
 20
4903.6133253812
 30
0.0
 40
7.799999999999749
  0
SPLINE
  5
35B
330
1F
100
AcDbEntity
  8
0
  6
Continuous
 62
     7
370
    25
100
AcDbSpline
210
0.0
220
0.0
230
1.0
 70
     8
 71
     3
 72
    39
 73
    35
 74
     0
 42
0.000000001
 43
0.00000001
 40
0.0
 40
0.0
 40
0.0
 40
0.0
 40
0.0308463655091757
 40
0.0621059490983606
 40
0.0933651257708681
 40
0.1258167770513681
 40
0.1582684297514868
 40
0.1904165767989862
 40
0.2225647265606538
 40
0.2547204441945108
 40
0.2868744275725148
 40
0.3187995835925197
 40
0.3507247564677589
 40
0.3825674174024308
 40
0.4144079261338687
 40
0.4461267703290817
 40
0.4778455900207407
 40
0.5093762237461187
 40
0.5409060822524537
 40
0.5724168361583474
 40
0.603927574505491
 40
0.6351484221733052
 40
0.6663692724972147
 40
0.6975983583981105
 40
0.7288259229247014
 40
0.7598088403303677
 40
0.7907917583357026
 40
0.8217076364552953
 40
0.8526213437094625
 40
0.8833979809442167
 40
0.9141746038865342
 40
0.9447783193516073
 40
0.9753809238003467
 40
1.0
 40
1.0
 40
1.0
 40
1.0
 10
6268.090953272575
 20
4891.796269172392
 30
0.0
 10
6268.739896594115
 20
4891.516987718636
 30
0.0
 10
6270.046476485454
 20
4890.954683555251
 30
0.0
 10
6272.150980351289
 20
4890.525928038171
 30
0.0
 10
6274.325940854648
 20
4890.411704165343
 30
0.0
 10
6276.51910192924
 20
4890.676452681454
 30
0.0
 10
6278.656780390551
 20
4891.305965025942
 30
0.0
 10
6280.647868233267
 20
4892.291325233435
 30
0.0
 10
6282.444332296393
 20
4893.586540071607
 30
0.0
 10
6283.992200333494
 20
4895.170872890348
 30
0.0
 10
6285.253292277906
 20
4896.985710893032
 30
0.0
 10
6286.179735328315
 20
4898.986089974062
 30
0.0
 10
6286.761818155913
 20
4901.104905070649
 30
0.0
 10
6286.971978043438
 20
4903.290171821702
 30
0.0
 10
6286.818898108092
 20
4905.4756176583
 30
0.0
 10
6286.291055965927
 20
4907.598884514534
 30
0.0
 10
6285.422184908265
 20
4909.599081618107
 30
0.0
 10
6284.225063002094
 20
4911.416511141261
 30
0.0
 10
6282.748622797355
 20
4913.008997038056
 30
0.0
 10
6281.019904106958
 20
4914.32272742883
 30
0.0
 10
6279.103303230198
 20
4915.327884022907
 30
0.0
 10
6277.048844951642
 20
4915.985972938734
 30
0.0
 10
6274.92052759846
 20
4916.296486011432
 30
0.0
 10
6272.770237981304
 20
4916.237119604033
 30
0.0
 10
6270.664796160757
 20
4915.822984198385
 30
0.0
 10
6268.667948694446
 20
4915.053637924765
 30
0.0
 10
6266.831367084427
 20
4913.969388729958
 30
0.0
 10
6265.208992848728
 20
4912.587500259544
 30
0.0
 10
6263.839962503611
 20
4910.960074838674
 30
0.0
 10
6262.775011285074
 20
4909.123389613433
 30
0.0
 10
6262.029345196131
 20
4907.142194304541
 30
0.0
 10
6261.641460348529
 20
4905.067945891173
 30
0.0
 10
6261.582889023686
 20
4903.094047311256
 30
0.0
 10
6261.786801397551
 20
4901.84666345736
 30
0.0
 10
6261.877710153157
 20
4901.290551477633
 30
0.0
  0
ARC
  5
35C
330
1F
100
AcDbEntity
  8
0
  6
Continuous
 62
     7
370
    25
100
AcDbCircle
 10
6274.0187553361
 20
4903.6133253812
 30
0.0
 40
13.22049999999975
100
AcDbArc
 50
153.3602341195
 51
243.3602330491
  0
SPLINE
  5
35D
330
1F
100
AcDbEntity
  8
0
  6
Continuous
 62
     7
370
    25
100
AcDbSpline
210
0.0
220
0.0
230
1.0
 70
     8
 71
     3
 72
    16
 73
    12
 74
     0
 42
0.000000001
 43
0.00000001
 40
0.0
 40
0.0
 40
0.0
 40
0.0
 40
0.1148327060141548
 40
0.23071543744196
 40
0.3466033076144561
 40
0.4626832073948229
 40
0.5787630997209646
 40
0.6949736183388345
 40
0.811210927433596
 40
0.9056054048228477
 40
1.0
 40
1.0
 40
1.0
 40
1.0
 10
6267.076188851887
 20
4893.385861718617
 30
0.0
 10
6266.49244001123
 20
4893.783581069266
 30
0.0
 10
6265.319604555172
 20
4894.582656499506
 30
0.0
 10
6263.85353055014
 20
4896.144769156283
 30
0.0
 10
6262.642594565807
 20
4897.911567824644
 30
0.0
 10
6261.7553176386
 20
4899.866026364884
 30
0.0
 10
6261.199914375563
 20
4901.940157777113
 30
0.0
 10
6261.007074764063
 20
4904.080917828244
 30
0.0
 10
6261.156873696254
 20
4906.088477750839
 30
0.0
 10
6261.556249664227
 20
4907.925162163228
 30
0.0
 10
6261.986550140625
 20
4909.00247182388
 30
0.0
 10
6262.201700513059
 20
4909.541126990281
 30
0.0
  0
SPLINE
  5
35E
330
1F
100
AcDbEntity
  8
0
  6
Continuous
 62
     7
370
    25
100
AcDbSpline
210
0.0
220
0.0
230
1.0
 70
     8
 71
     3
 72
    13
 73
     9
 74
     0
 42
0.000000001
 43
0.00000001
 40
0.0
 40
0.0
 40
0.0
 40
0.0
 40
0.0409240333406782
 40
0.20493915344765
 40
0.4196579277081265
 40
0.634376537582327
 40
0.8171883256385204
 40
1.0
 40
1.0
 40
1.0
 40
1.0
 10
6261.877710153157
 20
4901.290551477633
 30
0.0
 10
6261.903887079638
 20
4901.160853438732
 30
0.0
 10
6262.034975750891
 20
4900.511352299026
 30
0.0
 10
6262.421740414999
 20
4899.206351179241
 30
0.0
 10
6263.232816310726
 20
4897.457268202761
 30
0.0
 10
6264.361379243403
 20
4895.821261128154
 30
0.0
 10
6265.650034244191
 20
4894.444455447976
 30
0.0
 10
6266.600804081207
 20
4893.738726221919
 30
0.0
 10
6267.076188851887
 20
4893.385861718617
 30
0.0
  0
CIRCLE
  5
35F
330
1F
100
AcDbEntity
  8
0
  6
Continuous
 62
     7
370
    25
100
AcDbCircle
 10
6274.0187553361
 20
4903.6133253812
 30
0.0
 40
11.72050000000088
  0
CIRCLE
  5
360
330
1F
100
AcDbEntity
  8
0
  6
Continuous
 62
     7
370
    25
100
AcDbCircle
 10
6274.0187553361
 20
4903.6133253812
 30
0.0
 40
9.750000000000648
  0
SPLINE
  5
361
330
1F
100
AcDbEntity
  8
0
  6
Continuous
 62
     7
370
    25
100
AcDbSpline
210
0.0
220
0.0
230
1.0
 70
     8
 71
     3
 72
    28
 73
    24
 74
     0
 42
0.000000001
 43
0.00000001
 40
0.0
 40
0.0
 40
0.0
 40
0.0
 40
0.0280927552156083
 40
0.0779666194588725
 40
0.1281601757772054
 40
0.1791841812289062
 40
0.2297895696090155
 40
0.2794320170171934
 40
0.3301452832462978
 40
0.3811380410413558
 40
0.4311657124919684
 40
0.4811934251037845
 40
0.5321861669774214
 40
0.582899419777786
 40
0.632541891839521
 40
0.6831472654081546
 40
0.7341712554877399
 40
0.7843648276572679
 40
0.8342386722228522
 40
0.8851846422429825
 40
0.9359907252782675
 40
0.9856718019288171
 40
1.0
 40
1.0
 40
1.0
 40
1.0
 10
6262.201700513059
 20
4909.541126990281
 30
0.0
 10
6262.462236781073
 20
4910.015990613408
 30
0.0
 10
6263.185310467064
 20
4911.333893080256
 30
0.0
 10
6264.803194786739
 20
4913.233007304678
 30
0.0
 10
6267.123690311648
 20
4915.022018329892
 30
0.0
 10
6269.801939607183
 20
4916.258590316674
 30
0.0
 10
6272.674174766918
 20
4916.872465597667
 30
0.0
 10
6275.604649643164
 20
4916.845948437795
 30
0.0
 10
6278.46716959034
 20
4916.179452035735
 30
0.0
 10
6281.118746661176
 20
4914.893666424769
 30
0.0
 10
6283.412403926612
 20
4913.066346748884
 30
0.0
 10
6285.254139602319
 20
4910.784244898054
 30
0.0
 10
6286.55660149636
 20
4908.140831412647
 30
0.0
 10
6287.241134515843
 20
4905.282530045232
 30
0.0
 10
6287.286063780412
 20
4902.352419193699
 30
0.0
 10
6286.690490176026
 20
4899.475846652434
 30
0.0
 10
6285.4700925956
 20
4896.791839759167
 30
0.0
 10
6283.698393653839
 20
4894.452851121349
 30
0.0
 10
6281.462809471502
 20
4892.55945592749
 30
0.0
 10
6278.852671907171
 20
4891.182605122349
 30
0.0
 10
6276.016614482405
 20
4890.465766045321
 30
0.0
 10
6273.772296506902
 20
4890.270215481019
 30
0.0
 10
6272.562374576225
 20
4890.51703162072
 30
0.0
 10
6272.291538808303
 20
4890.572280341349
 30
0.0
  0
SPLINE
  5
362
330
1F
100
AcDbEntity
  8
0
  6
Continuous
 62
     7
370
    25
100
AcDbSpline
210
0.0
220
0.0
230
1.0
 70
     8
 71
     3
 72
    12
 73
     8
 74
     0
 42
0.000000001
 43
0.00000001
 40
0.0
 40
0.0
 40
0.0
 40
0.0
 40
0.1689547042766454
 40
0.3353666665352465
 40
0.6509910366129227
 40
0.9709690619428332
 40
1.0
 40
1.0
 40
1.0
 40
1.0
 10
6267.076188851887
 20
4893.385861718617
 30
0.0
 10
6266.684012162366
 20
4893.67241664801
 30
0.0
 10
6265.905560981497
 20
4894.241213899683
 30
0.0
 10
6264.563641882031
 20
4895.556460133389
 30
0.0
 10
6263.235157657107
 20
4897.439165694078
 30
0.0
 10
6262.342554975232
 20
4899.178404558025
 30
0.0
 10
6262.165303679772
 20
4900.165718738489
 30
0.0
 10
6262.150559727842
 20
4900.247844585739
 30
0.0
  0
LINE
  5
363
330
1F
100
AcDbEntity
  8
0
  6
Continuous
 62
     7
370
    25
100
AcDbLine
 10
6266.1820372239
 20
4917.0887048334
 30
0.0
 11
6258.4303758711
 21
4903.5642172187
 31
0.0
  0
LINE
  5
364
330
1F
100
AcDbEntity
  8
0
  6
Continuous
 62
     7
370
    25
100
AcDbLine
 10
6289.6071348011
 20
4903.6624326348
 30
0.0
 11
6281.7704171546
 21
4917.1378125414
 31
0.0
  0
LINE
  5
365
330
1F
100
AcDbEntity
  8
0
  6
Continuous
 62
     7
370
    25
100
AcDbLine
 10
6281.8554734483
 20
4890.1379450202
 30
0.0
 11
6289.6071348011
 21
4903.6624326348
 31
0.0
  0
LINE
  5
366
330
1F
100
AcDbEntity
  8
0
  6
Continuous
 62
     7
370
    25
100
AcDbLine
 10
6266.2670935176
 20
4890.0888382434
 30
0.0
 11
6281.8554734483
 21
4890.1379450202
 31
0.0
  0
LINE
  5
367
330
1F
100
AcDbEntity
  8
0
  6
Continuous
 62
     7
370
    25
100
AcDbLine
 10
6258.4303758711
 20
4903.5642172187
 30
0.0
 11
6266.2670935176
 21
4890.0888382434
 31
0.0
  0
LINE
  5
368
330
1F
100
AcDbEntity
  8
0
  6
Continuous
 62
     7
370
    25
100
AcDbLine
 10
6281.7704171546
 20
4917.1378125414
 30
0.0
 11
6266.1820372239
 21
4917.0887048334
 31
0.0
  0
LINE
  5
369
330
1F
100
AcDbEntity
  8
0
  6
Continuous
 62
     8
370
    25
100
AcDbLine
 10
6223.1412959889
 20
4859.5133244037
 30
0.0
 11
6223.1412959889
 21
4859.1133250832
 31
0.0
  0
LINE
  5
36A
330
1F
100
AcDbEntity
  8
0
  6
Continuous
 62
     8
370
    25
100
AcDbLine
 10
6324.8962146833
 20
4859.5133244037
 30
0.0
 11
6324.8962146833
 21
4859.1133250832
 31
0.0
  0
LINE
  5
36B
330
1F
100
AcDbEntity
  8
0
  6
Continuous
 62
     8
370
    25
100
AcDbLine
 10
6219.0187556341
 20
4856.5256266832
 30
0.0
 11
6219.0187556341
 21
4856.1133264541
 31
0.0
  0
LINE
  5
36C
330
1F
100
AcDbEntity
  8
0
  6
Continuous
 62
     8
370
    25
100
AcDbLine
 10
6329.0187550381
 20
4856.5256266832
 30
0.0
 11
6329.0187550381
 21
4856.1133264541
 31
0.0
  0
LINE
  5
36D
330
1F
100
AcDbEntity
  8
0
  6
Continuous
 62
     8
370
    25
100
AcDbLine
 10
6329.0187550381
 20
4859.1133250832
 30
0.0
 11
6329.0187550381
 21
4856.5256266832
 31
0.0
  0
LINE
  5
36E
330
1F
100
AcDbEntity
  8
0
  6
Continuous
 62
     8
370
    25
100
AcDbLine
 10
6219.0187556341
 20
4859.1133250832
 30
0.0
 11
6219.0187556341
 21
4856.5256266832
 31
0.0
  0
LINE
  5
36F
330
1F
100
AcDbEntity
  8
0
  6
Continuous
 62
     8
370
    25
100
AcDbLine
 10
6274.0187553361
 20
4847.4466620922
 30
0.0
 11
6201.6331387356
 21
4847.4466620922
 31
0.0
  0
LINE
  5
370
330
1F
100
AcDbEntity
  8
0
  6
Continuous
 62
     8
370
    25
100
AcDbLine
 10
6346.4043719366
 20
4847.4466620922
 30
0.0
 11
6274.0187553361
 21
4847.4466620922
 31
0.0
  0
ENDSEC
  0
SECTION
  2
OBJECTS
  0
DICTIONARY
  5
C
330
0
100
AcDbDictionary
281
     1
  3
ACAD_GROUP
350
D
  3
ACAD_LAYOUT
350
1A
  3
ACAD_MLINESTYLE
350
17
  3
ACAD_PLOTSETTINGS
350
19
  3
ACAD_PLOTSTYLENAME
350
E
  3
ACAD_SCALELIST
350
47
  0
DICTIONARY
  5
D
102
{ACAD_REACTORS
330
C
102
}
330
C
100
AcDbDictionary
281
     1
  0
DICTIONARY
  5
1A
102
{ACAD_REACTORS
330
C
102
}
330
C
100
AcDbDictionary
281
     1
  3
Layout1
350
1E
  3
Layout2
350
26
  3
Model
350
22
  0
DICTIONARY
  5
17
102
{ACAD_REACTORS
330
C
102
}
330
C
100
AcDbDictionary
281
     1
  3
Standard
350
18
  0
DICTIONARY
  5
19
102
{ACAD_REACTORS
330
C
102
}
330
C
100
AcDbDictionary
281
     1
  0
ACDBDICTIONARYWDFLT
  5
E
102
{ACAD_REACTORS
330
C
102
}
330
C
100
AcDbDictionary
281
     1
  3
Normal
350
F
100
AcDbDictionaryWithDefault
340
F
  0
DICTIONARY
  5
47
102
{ACAD_REACTORS
330
C
102
}
330
C
100
AcDbDictionary
281
     1
  3
A0
350
48
  3
A1
350
49
  3
A2
350
4A
  3
A3
350
4B
  3
A4
350
4C
  3
A5
350
4D
  3
A6
350
4E
  3
A7
350
4F
  3
A8
350
50
  3
A9
350
51
  3
B0
350
52
  3
B1
350
53
  3
B2
350
54
  3
B3
350
55
  3
B4
350
56
  3
B5
350
57
  3
B6
350
58
  3
B7
350
59
  3
B8
350
5A
  3
B9
350
5B
  3
C0
350
5C
  3
C1
350
5D
  3
C2
350
5E
  3
C3
350
5F
  3
C4
350
60
  3
C5
350
61
  3
C6
350
62
  3
C7
350
63
  3
C8
350
64
  3
C9
350
65
  3
D0
350
66
  3
D1
350
67
  3
D2
350
68
  0
LAYOUT
  5
1E
102
{ACAD_REACTORS
330
1A
102
}
330
1A
100
AcDbPlotSettings
  1

  2
none_device
  4

  6

 40
0.0
 41
0.0
 42
0.0
 43
0.0
 44
0.0
 45
0.0
 46
0.0
 47
0.0
 48
0.0
 49
0.0
140
0.0
141
0.0
142
1.0
143
1.0
 70
   688
 72
     1
 73
     0
 74
     5
  7

 75
    16
147
1.0
148
0.0
149
0.0
100
AcDbLayout
  1
Layout1
 70
     1
 71
     1
 10
0.0
 20
0.0
 11
420.0
 21
297.0
 12
0.0
 22
0.0
 32
0.0
 14
1.0000000000E+20
 24
1.0000000000E+20
 34
1.0000000000E+20
 15
-1.0000000000E+20
 25
-1.0000000000E+20
 35
-1.0000000000E+20
146
0.0
 13
0.0
 23
0.0
 33
0.0
 16
1.0
 26
0.0
 36
0.0
 17
0.0
 27
1.0
 37
0.0
 76
     0
330
1B
  0
LAYOUT
  5
26
102
{ACAD_REACTORS
330
1A
102
}
330
1A
100
AcDbPlotSettings
  1

  2
none_device
  4

  6

 40
0.0
 41
0.0
 42
0.0
 43
0.0
 44
0.0
 45
0.0
 46
0.0
 47
0.0
 48
0.0
 49
0.0
140
0.0
141
0.0
142
1.0
143
1.0
 70
   688
 72
     1
 73
     0
 74
     5
  7

 75
    16
147
1.0
148
0.0
149
0.0
100
AcDbLayout
  1
Layout2
 70
     1
 71
     2
 10
0.0
 20
0.0
 11
0.0
 21
0.0
 12
0.0
 22
0.0
 32
0.0
 14
0.0
 24
0.0
 34
0.0
 15
0.0
 25
0.0
 35
0.0
146
0.0
 13
0.0
 23
0.0
 33
0.0
 16
1.0
 26
0.0
 36
0.0
 17
0.0
 27
1.0
 37
0.0
 76
     0
330
23
  0
LAYOUT
  5
22
102
{ACAD_REACTORS
330
1A
102
}
330
1A
100
AcDbPlotSettings
  1

  2
none_device
  4
Letter_(8.50_x_11.00_Inches)
  6

 40
6.35
 41
6.35
 42
6.35000508
 43
6.35000508
 44
215.9
 45
279.4
 46
0.0
 47
0.0
 48
0.0
 49
0.0
140
0.0
141
0.0
142
1.0
143
1.0
 70
  1712
 72
     1
 73
     0
 74
     0
  7

 75
     0
147
1.0
148
0.0
149
0.0
100
AcDbLayout
  1
Model
 70
     1
 71
     0
 10
0.0
 20
0.0
 11
20000.0
 21
10000.0
 12
0.0
 22
0.0
 32
0.0
 14
0.0
 24
0.0
 34
0.0
 15
20000.0
 25
10000.0
 35
0.0
146
0.0
 13
0.0
 23
0.0
 33
0.0
 16
1.0
 26
0.0
 36
0.0
 17
0.0
 27
1.0
 37
0.0
 76
     0
330
1F
331
29
  0
MLINESTYLE
  5
18
102
{ACAD_REACTORS
330
17
102
}
330
17
100
AcDbMlineStyle
  2
Standard
 70
     0
  3

 62
   256
 51
90.0
 52
90.0
 71
     2
 49
0.5
 62
   256
  6
BYLAYER
 49
-0.5
 62
   256
  6
BYLAYER
  0
ACDBPLACEHOLDER
  5
F
102
{ACAD_REACTORS
330
E
102
}
330
E
  0
SCALE
  5
48
102
{ACAD_REACTORS
330
47
102
}
330
47
100
AcDbScale
 70
     0
300
1:1
140
1.0
141
1.0
290
     1
  0
SCALE
  5
49
102
{ACAD_REACTORS
330
47
102
}
330
47
100
AcDbScale
 70
     0
300
1:2
140
1.0
141
2.0
290
     0
  0
SCALE
  5
4A
102
{ACAD_REACTORS
330
47
102
}
330
47
100
AcDbScale
 70
     0
300
1:4
140
1.0
141
4.0
290
     0
  0
SCALE
  5
4B
102
{ACAD_REACTORS
330
47
102
}
330
47
100
AcDbScale
 70
     0
300
1:5
140
1.0
141
5.0
290
     0
  0
SCALE
  5
4C
102
{ACAD_REACTORS
330
47
102
}
330
47
100
AcDbScale
 70
     0
300
1:8
140
1.0
141
8.0
290
     0
  0
SCALE
  5
4D
102
{ACAD_REACTORS
330
47
102
}
330
47
100
AcDbScale
 70
     0
300
1:10
140
1.0
141
10.0
290
     0
  0
SCALE
  5
4E
102
{ACAD_REACTORS
330
47
102
}
330
47
100
AcDbScale
 70
     0
300
1:16
140
1.0
141
16.0
290
     0
  0
SCALE
  5
4F
102
{ACAD_REACTORS
330
47
102
}
330
47
100
AcDbScale
 70
     0
300
1:20
140
1.0
141
20.0
290
     0
  0
SCALE
  5
50
102
{ACAD_REACTORS
330
47
102
}
330
47
100
AcDbScale
 70
     0
300
1:30
140
1.0
141
30.0
290
     0
  0
SCALE
  5
51
102
{ACAD_REACTORS
330
47
102
}
330
47
100
AcDbScale
 70
     0
300
1:40
140
1.0
141
40.0
290
     0
  0
SCALE
  5
52
102
{ACAD_REACTORS
330
47
102
}
330
47
100
AcDbScale
 70
     0
300
1:50
140
1.0
141
50.0
290
     0
  0
SCALE
  5
53
102
{ACAD_REACTORS
330
47
102
}
330
47
100
AcDbScale
 70
     0
300
1:100
140
1.0
141
100.0
290
     0
  0
SCALE
  5
54
102
{ACAD_REACTORS
330
47
102
}
330
47
100
AcDbScale
 70
     0
300
2:1
140
2.0
141
1.0
290
     0
  0
SCALE
  5
55
102
{ACAD_REACTORS
330
47
102
}
330
47
100
AcDbScale
 70
     0
300
4:1
140
4.0
141
1.0
290
     0
  0
SCALE
  5
56
102
{ACAD_REACTORS
330
47
102
}
330
47
100
AcDbScale
 70
     0
300
8:1
140
8.0
141
1.0
290
     0
  0
SCALE
  5
57
102
{ACAD_REACTORS
330
47
102
}
330
47
100
AcDbScale
 70
     0
300
10:1
140
10.0
141
1.0
290
     0
  0
SCALE
  5
58
102
{ACAD_REACTORS
330
47
102
}
330
47
100
AcDbScale
 70
     0
300
100:1
140
100.0
141
1.0
290
     0
  0
SCALE
  5
59
102
{ACAD_REACTORS
330
47
102
}
330
47
100
AcDbScale
 70
     0
300
1/128" = 1'-0"
140
0.0078125
141
12.0
290
     0
  0
SCALE
  5
5A
102
{ACAD_REACTORS
330
47
102
}
330
47
100
AcDbScale
 70
     0
300
1/64" = 1'-0"
140
0.015625
141
12.0
290
     0
  0
SCALE
  5
5B
102
{ACAD_REACTORS
330
47
102
}
330
47
100
AcDbScale
 70
     0
300
1/32" = 1'-0"
140
0.03125
141
12.0
290
     0
  0
SCALE
  5
5C
102
{ACAD_REACTORS
330
47
102
}
330
47
100
AcDbScale
 70
     0
300
1/16" = 1'-0"
140
0.0625
141
12.0
290
     0
  0
SCALE
  5
5D
102
{ACAD_REACTORS
330
47
102
}
330
47
100
AcDbScale
 70
     0
300
3/32" = 1'-0"
140
0.09375
141
12.0
290
     0
  0
SCALE
  5
5E
102
{ACAD_REACTORS
330
47
102
}
330
47
100
AcDbScale
 70
     0
300
1/8" = 1'-0"
140
0.125
141
12.0
290
     0
  0
SCALE
  5
5F
102
{ACAD_REACTORS
330
47
102
}
330
47
100
AcDbScale
 70
     0
300
3/16" = 1'-0"
140
0.1875
141
12.0
290
     0
  0
SCALE
  5
60
102
{ACAD_REACTORS
330
47
102
}
330
47
100
AcDbScale
 70
     0
300
1/4" = 1'-0"
140
0.25
141
12.0
290
     0
  0
SCALE
  5
61
102
{ACAD_REACTORS
330
47
102
}
330
47
100
AcDbScale
 70
     0
300
3/8" = 1'-0"
140
0.375
141
12.0
290
     0
  0
SCALE
  5
62
102
{ACAD_REACTORS
330
47
102
}
330
47
100
AcDbScale
 70
     0
300
1/2" = 1'-0"
140
0.5
141
12.0
290
     0
  0
SCALE
  5
63
102
{ACAD_REACTORS
330
47
102
}
330
47
100
AcDbScale
 70
     0
300
3/4" = 1'-0"
140
0.75
141
12.0
290
     0
  0
SCALE
  5
64
102
{ACAD_REACTORS
330
47
102
}
330
47
100
AcDbScale
 70
     0
300
1" = 1'-0"
140
1.0
141
12.0
290
     0
  0
SCALE
  5
65
102
{ACAD_REACTORS
330
47
102
}
330
47
100
AcDbScale
 70
     0
300
1-1/2" = 1'-0"
140
1.5
141
12.0
290
     0
  0
SCALE
  5
66
102
{ACAD_REACTORS
330
47
102
}
330
47
100
AcDbScale
 70
     0
300
3" = 1'-0"
140
3.0
141
12.0
290
     0
  0
SCALE
  5
67
102
{ACAD_REACTORS
330
47
102
}
330
47
100
AcDbScale
 70
     0
300
6" = 1'-0"
140
6.0
141
12.0
290
     0
  0
SCALE
  5
68
102
{ACAD_REACTORS
330
47
102
}
330
47
100
AcDbScale
 70
     0
300
1'-0" = 1'-0"
140
12.0
141
12.0
290
     0
  0
ENDSEC
  0
EOF
