  0
SECTION
  2
HEADER
  9
$ACADVER
  1
AC1015
  9
$ACADMAINTVER
 70
     6
  9
$DWGCODEPAGE
  3
ANSI_1250
  9
$INSBASE
 10
0.0
 20
0.0
 30
0.0
  9
$EXTMIN
 10
5674.0187553361
 20
4124.8864315465
 30
0.0
  9
$EXTMAX
 10
7761.0886472365
 20
5412.7431966076
 30
0.0
  9
$LIMMIN
 10
0.0
 20
0.0
  9
$LIMMAX
 10
420.0
 20
297.0
  9
$ORTHOMODE
 70
     0
  9
$REGENMODE
 70
     1
  9
$FILLMODE
 70
     1
  9
$QTEXTMODE
 70
     0
  9
$MIRRTEXT
 70
     1
  9
$LTSCALE
 40
1.0
  9
$ATTMODE
 70
     1
  9
$TEXTSIZE
 40
3.5
  9
$TRACEWID
 40
1.0
  9
$TEXTSTYLE
  7
Standard
  9
$CLAYER
  8
0
  9
$CELTYPE
  6
ByLayer
  9
$CECOLOR
 62
   256
  9
$CELTSCALE
 40
1.0
  9
$DISPSILH
 70
     0
  9
$DIMSCALE
 40
1.0
  9
$DIMASZ
 40
3.302
  9
$DIMEXO
 40
0.0
  9
$DIMDLI
 40
3.75
  9
$DIMRND
 40
0.0
  9
$DIMDLE
 40
0.0
  9
$DIMEXE
 40
1.0
  9
$DIMTP
 40
0.0
  9
$DIMTM
 40
0.0
  9
$DIMTXT
 40
3.5
  9
$DIMCEN
 40
2.5
  9
$DIMTSZ
 40
0.0
  9
$DIMTOL
 70
     0
  9
$DIMLIM
 70
     0
  9
$DIMTIH
 70
     1
  9
$DIMTOH
 70
     1
  9
$DIMSE1
 70
     0
  9
$DIMSE2
 70
     0
  9
$DIMTAD
 70
     1
  9
$DIMZIN
 70
     0
  9
$DIMBLK
  1

  9
$DIMASO
 70
     1
  9
$DIMSHO
 70
     1
  9
$DIMPOST
  1

  9
$DIMAPOST
  1

  9
$DIMALT
 70
     0
  9
$DIMALTD
 70
     3
  9
$DIMALTF
 40
0.0393700787
  9
$DIMLFAC
 40
1.0
  9
$DIMTOFL
 70
     1
  9
$DIMTVP
 40
0.0
  9
$DIMTIX
 70
     0
  9
$DIMSOXD
 70
     0
  9
$DIMSAH
 70
     0
  9
$DIMBLK1
  1

  9
$DIMBLK2
  1

  9
$DIMSTYLE
  2
ISO-25
  9
$DIMCLRD
 70
     0
  9
$DIMCLRE
 70
     0
  9
$DIMCLRT
 70
     0
  9
$DIMTFAC
 40
1.0
  9
$DIMGAP
 40
1.524
  9
$DIMJUST
 70
     0
  9
$DIMSD1
 70
     0
  9
$DIMSD2
 70
     0
  9
$DIMTOLJ
 70
     0
  9
$DIMTZIN
 70
     0
  9
$DIMALTZ
 70
     0
  9
$DIMALTTZ
 70
     0
  9
$DIMUPT
 70
     0
  9
$DIMDEC
 70
     2
  9
$DIMTDEC
 70
     2
  9
$DIMALTU
 70
     2
  9
$DIMALTTD
 70
     3
  9
$DIMTXSTY
  7
Standard
  9
$DIMAUNIT
 70
     0
  9
$DIMADEC
 70
     2
  9
$DIMALTRND
 40
0.0
  9
$DIMAZIN
 70
     0
  9
$DIMDSEP
 70
    44
  9
$DIMATFIT
 70
     3
  9
$DIMFRAC
 70
     0
  9
$DIMLDRBLK
  1

  9
$DIMLUNIT
 70
     2
  9
$DIMLWD
 70
    -2
  9
$DIMLWE
 70
    -2
  9
$DIMTMOVE
 70
     0
  9
$LUNITS
 70
     2
  9
$LUPREC
 70
     2
  9
$SKETCHINC
 40
1.0
  9
$FILLETRAD
 40
10.0
  9
$AUNITS
 70
     0
  9
$AUPREC
 70
     2
  9
$MENU
  1
.
  9
$ELEVATION
 40
0.0
  9
$PELEVATION
 40
0.0
  9
$THICKNESS
 40
0.0
  9
$LIMCHECK
 70
     0
  9
$CHAMFERA
 40
0.0
  9
$CHAMFERB
 40
0.0
  9
$CHAMFERC
 40
0.0
  9
$CHAMFERD
 40
0.0
  9
$SKPOLY
 70
     0
  9
$TDCREATE
 40
2459096.409703438
  9
$TDUCREATE
 40
2459096.326370104
  9
$TDUPDATE
 40
2459096.409733646
  9
$TDUUPDATE
 40
2459096.326400313
  9
$TDINDWG
 40
0.0000000116
  9
$TDUSRTIMER
 40
0.0000000116
  9
$USRTIMER
 70
     1
  9
$ANGBASE
 50
0.0
  9
$ANGDIR
 70
     0
  9
$PDMODE
 70
     0
  9
$PDSIZE
 40
-1.0
  9
$PLINEWID
 40
0.0
  9
$SPLFRAME
 70
     0
  9
$SPLINETYPE
 70
     6
  9
$SPLINESEGS
 70
     8
  9
$HANDSEED
  5
335
  9
$SURFTAB1
 70
     6
  9
$SURFTAB2
 70
     6
  9
$SURFTYPE
 70
     6
  9
$SURFU
 70
     6
  9
$SURFV
 70
     6
  9
$UCSBASE
  2

  9
$UCSNAME
  2

  9
$UCSORG
 10
0.0
 20
0.0
 30
0.0
  9
$UCSXDIR
 10
1.0
 20
0.0
 30
0.0
  9
$UCSYDIR
 10
0.0
 20
1.0
 30
0.0
  9
$UCSORTHOREF
  2

  9
$UCSORTHOVIEW
 70
     0
  9
$UCSORGTOP
 10
0.0
 20
0.0
 30
0.0
  9
$UCSORGBOTTOM
 10
0.0
 20
0.0
 30
0.0
  9
$UCSORGLEFT
 10
0.0
 20
0.0
 30
0.0
  9
$UCSORGRIGHT
 10
0.0
 20
0.0
 30
0.0
  9
$UCSORGFRONT
 10
0.0
 20
0.0
 30
0.0
  9
$UCSORGBACK
 10
0.0
 20
0.0
 30
0.0
  9
$PUCSBASE
  2

  9
$PUCSNAME
  2

  9
$PUCSORG
 10
0.0
 20
0.0
 30
0.0
  9
$PUCSXDIR
 10
1.0
 20
0.0
 30
0.0
  9
$PUCSYDIR
 10
0.0
 20
1.0
 30
0.0
  9
$PUCSORTHOREF
  2

  9
$PUCSORTHOVIEW
 70
     0
  9
$PUCSORGTOP
 10
0.0
 20
0.0
 30
0.0
  9
$PUCSORGBOTTOM
 10
0.0
 20
0.0
 30
0.0
  9
$PUCSORGLEFT
 10
0.0
 20
0.0
 30
0.0
  9
$PUCSORGRIGHT
 10
0.0
 20
0.0
 30
0.0
  9
$PUCSORGFRONT
 10
0.0
 20
0.0
 30
0.0
  9
$PUCSORGBACK
 10
0.0
 20
0.0
 30
0.0
  9
$USERI1
 70
     0
  9
$USERI2
 70
     0
  9
$USERI3
 70
     0
  9
$USERI4
 70
     0
  9
$USERI5
 70
     0
  9
$USERR1
 40
0.0
  9
$USERR2
 40
0.0
  9
$USERR3
 40
0.0
  9
$USERR4
 40
0.0
  9
$USERR5
 40
0.0
  9
$WORLDVIEW
 70
     1
  9
$SHADEDGE
 70
     3
  9
$SHADEDIF
 70
    70
  9
$TILEMODE
 70
     1
  9
$MAXACTVP
 70
    64
  9
$PINSBASE
 10
0.0
 20
0.0
 30
0.0
  9
$PLIMCHECK
 70
     0
  9
$PEXTMIN
 10
1.0000000000E+20
 20
1.0000000000E+20
 30
1.0000000000E+20
  9
$PEXTMAX
 10
-1.0000000000E+20
 20
-1.0000000000E+20
 30
-1.0000000000E+20
  9
$PLIMMIN
 10
0.0
 20
0.0
  9
$PLIMMAX
 10
420.0
 20
297.0
  9
$UNITMODE
 70
     0
  9
$VISRETAIN
 70
     1
  9
$PLINEGEN
 70
     0
  9
$PSLTSCALE
 70
     1
  9
$TREEDEPTH
 70
  3020
  9
$CMLSTYLE
  2
Standard
  9
$CMLJUST
 70
     0
  9
$CMLSCALE
 40
20.0
  9
$PROXYGRAPHICS
 70
     1
  9
$MEASUREMENT
 70
     1
  9
$CELWEIGHT
370
    -1
  9
$ENDCAPS
280
     0
  9
$JOINSTYLE
280
     0
  9
$LWDISPLAY
290
     1
  9
$INSUNITS
 70
     4
  9
$HYPERLINKBASE
  1

  9
$STYLESHEET
  1

  9
$XEDIT
290
     1
  9
$CEPSNTYPE
380
     0
  9
$PSTYLEMODE
290
     1
  9
$FINGERPRINTGUID
  2
{f4947229-d800-4534-bc8d-62dc83c06607}
  9
$VERSIONGUID
  2
{FAEB1C32-E019-11D5-929B-00C0DF256EC4}
  9
$EXTNAMES
290
     1
  9
$PSVPSCALE
 40
0.0
  9
$OLESTARTUP
290
     0
  0
ENDSEC
  0
SECTION
  2
CLASSES
  0
CLASS
  1
ACDBDICTIONARYWDFLT
  2
AcDbDictionaryWithDefault
  3
ObjectDBX Classes
 90
        0
280
     0
281
     0
  0
CLASS
  1
VISUALSTYLE
  2
AcDbVisualStyle
  3
ObjectDBX Classes
 90
     4095
280
     0
281
     0
  0
CLASS
  1
MATERIAL
  2
AcDbMaterial
  3
ObjectDBX Classes
 90
     1153
280
     0
281
     0
  0
CLASS
  1
SCALE
  2
AcDbScale
  3
ObjectDBX Classes
 90
     1153
280
     0
281
     0
  0
CLASS
  1
TABLESTYLE
  2
AcDbTableStyle
  3
ObjectDBX Classes
 90
     4095
280
     0
281
     0
  0
CLASS
  1
MLEADERSTYLE
  2
AcDbMLeaderStyle
  3
ACDB_MLEADERSTYLE_CLASS
 90
     4095
280
     0
281
     0
  0
CLASS
  1
SUN
  2
AcDbSun
  3
SCENEOE
 90
     1153
280
     0
281
     0
  0
CLASS
  1
ACDBPLACEHOLDER
  2
AcDbPlaceHolder
  3
ObjectDBX Classes
 90
        0
280
     0
281
     0
  0
CLASS
  1
LAYOUT
  2
AcDbLayout
  3
ObjectDBX Classes
 90
        0
280
     0
281
     0
  0
ENDSEC
  0
SECTION
  2
TABLES
  0
TABLE
  2
VPORT
  5
8
330
0
100
AcDbSymbolTable
 70
     1
  0
VPORT
  5
29
330
8
100
AcDbSymbolTableRecord
100
AcDbViewportTableRecord
  2
*Active
 70
     0
 10
0.0
 20
0.0
 11
1.0
 21
1.0
 12
6717.5537012863
 22
4768.814814077
 13
0.0
 23
0.0
 14
10.0
 24
10.0
 15
10.0
 25
10.0
 16
0.0
 26
0.0
 36
1.0
 17
0.0
 27
0.0
 37
0.0
 40
1313.6139003623
 41
1.6205760986
 42
50.0
 43
0.0
 44
0.0
 50
0.0
 51
0.0
 71
     0
 72
   100
 73
     1
 74
     3
 75
     0
 76
     0
 77
     0
 78
     0
281
     0
 65
     1
110
0.0
120
0.0
130
0.0
111
1.0
121
0.0
131
0.0
112
0.0
122
1.0
132
0.0
 79
     0
146
0.0
  0
ENDTAB
  0
TABLE
  2
LTYPE
  5
5
330
0
100
AcDbSymbolTable
 70
     6
  0
LTYPE
  5
14
330
5
100
AcDbSymbolTableRecord
100
AcDbLinetypeTableRecord
  2
ByBlock
 70
     0
  3

 72
    65
 73
     0
 40
0.0
  0
LTYPE
  5
15
330
5
100
AcDbSymbolTableRecord
100
AcDbLinetypeTableRecord
  2
ByLayer
 70
     0
  3

 72
    65
 73
     0
 40
0.0
  0
LTYPE
  5
16
330
5
100
AcDbSymbolTableRecord
100
AcDbLinetypeTableRecord
  2
Continuous
 70
     0
  3
Solid line
 72
    65
 73
     0
 40
0.0
  0
LTYPE
  5
6E
330
5
100
AcDbSymbolTableRecord
100
AcDbLinetypeTableRecord
  2
HIDDEN
 70
     0
  3
Hidden __ __ __ __ __ __ __ __ __ __ __ __ __ __
 72
    65
 73
     2
 40
1.905
 49
1.27
 74
     0
 49
-0.635
 74
     0
  0
LTYPE
  5
6F
330
5
100
AcDbSymbolTableRecord
100
AcDbLinetypeTableRecord
  2
PHANTOM
 70
     0
  3
Phantom ______  __  __  ______  __  __  ______
 72
    65
 73
     6
 40
12.7
 49
6.35
 74
     0
 49
-1.27
 74
     0
 49
1.27
 74
     0
 49
-1.27
 74
     0
 49
1.27
 74
     0
 49
-1.27
 74
     0
  0
LTYPE
  5
70
330
5
100
AcDbSymbolTableRecord
100
AcDbLinetypeTableRecord
  2
CENTER
 70
     0
  3
Center ____ _ ____ _ ____ _ ____ _ ____ _ ____
 72
    65
 73
     4
 40
10.16
 49
6.35
 74
     0
 49
-1.27
 74
     0
 49
1.27
 74
     0
 49
-1.27
 74
     0
  0
LTYPE
  5
71
330
5
100
AcDbSymbolTableRecord
100
AcDbLinetypeTableRecord
  2
CENTERX2
 70
     0
  3
Center (2x) ________  __  ________  __  _____
 72
    65
 73
     4
 40
20.32
 49
12.7
 74
     0
 49
-2.54
 74
     0
 49
2.54
 74
     0
 49
-2.54
 74
     0
  0
LTYPE
  5
72
330
5
100
AcDbSymbolTableRecord
100
AcDbLinetypeTableRecord
  2
DOT2
 70
     0
  3
Dot (.5x) ........................................
 72
    65
 73
     2
 40
0.635
 49
0.0
 74
     0
 49
-0.635
 74
     0
  0
ENDTAB
  0
TABLE
  2
LAYER
  5
2
330
0
100
AcDbSymbolTable
 70
     1
  0
LAYER
  5
10
330
2
100
AcDbSymbolTableRecord
100
AcDbLayerTableRecord
  2
0
 70
     0
 62
     7
  6
Continuous
370
    -3
390
F
  0
ENDTAB
  0
TABLE
  2
STYLE
  5
3
330
0
100
AcDbSymbolTable
 70
     1
  0
STYLE
  5
11
330
3
100
AcDbSymbolTableRecord
100
AcDbTextStyleTableRecord
  2
Standard
 70
     0
 40
0.0
 41
1.0
 50
0.0
 71
     0
 42
3.5
  3
txt
  4

  0
ENDTAB
  0
TABLE
  2
VIEW
  5
6
330
0
100
AcDbSymbolTable
 70
     0
  0
ENDTAB
  0
TABLE
  2
UCS
  5
7
330
0
100
AcDbSymbolTable
 70
     0
  0
ENDTAB
  0
TABLE
  2
APPID
  5
9
330
0
100
AcDbSymbolTable
 70
     1
  0
APPID
  5
12
330
9
100
AcDbSymbolTableRecord
100
AcDbRegAppTableRecord
  2
ACAD
 70
     0
  0
ENDTAB
  0
TABLE
  2
DIMSTYLE
  5
A
330
0
100
AcDbSymbolTable
 70
     1
100
AcDbDimStyleTable
  0
DIMSTYLE
105
27
330
A
100
AcDbSymbolTableRecord
100
AcDbDimStyleTableRecord
  2
ISO-25
 70
     0
 41
2.5
 42
0.625
 43
3.75
 44
1.25
 73
     0
 74
     0
 77
     1
 78
     8
140
2.5
141
2.5
143
0.0393700787
147
0.625
171
     3
172
     1
178
     0
271
     2
272
     2
274
     3
278
    44
283
     0
284
     8
340
11
  0
ENDTAB
  0
TABLE
  2
BLOCK_RECORD
  5
1
330
0
100
AcDbSymbolTable
 70
     1
  0
BLOCK_RECORD
  5
1F
330
1
100
AcDbSymbolTableRecord
100
AcDbBlockTableRecord
  2
*Model_Space
340
22
  0
BLOCK_RECORD
  5
1B
330
1
100
AcDbSymbolTableRecord
100
AcDbBlockTableRecord
  2
*Paper_Space
340
1E
  0
BLOCK_RECORD
  5
23
330
1
100
AcDbSymbolTableRecord
100
AcDbBlockTableRecord
  2
*Paper_Space0
340
26
  0
ENDTAB
  0
ENDSEC
  0
SECTION
  2
BLOCKS
  0
BLOCK
  5
20
330
1F
100
AcDbEntity
  8
0
100
AcDbBlockBegin
  2
*Model_Space
 70
     0
 10
0.0
 20
0.0
 30
0.0
  3
*Model_Space
  1

  0
ENDBLK
  5
21
330
1F
100
AcDbEntity
  8
0
100
AcDbBlockEnd
  0
BLOCK
  5
1C
330
1B
100
AcDbEntity
 67
     1
  8
0
100
AcDbBlockBegin
  2
*Paper_Space
 70
     0
 10
0.0
 20
0.0
 30
0.0
  3
*Paper_Space
  1

  0
ENDBLK
  5
1D
330
1B
100
AcDbEntity
 67
     1
  8
0
100
AcDbBlockEnd
  0
BLOCK
  5
24
330
23
100
AcDbEntity
  8
0
100
AcDbBlockBegin
  2
*Paper_Space0
 70
     0
 10
0.0
 20
0.0
 30
0.0
  3
*Paper_Space0
  1

  0
ENDBLK
  5
25
330
23
100
AcDbEntity
  8
0
100
AcDbBlockEnd
  0
ENDSEC
  0
SECTION
  2
ENTITIES
  0
ARC
  5
73
330
1F
100
AcDbEntity
  8
0
  6
Continuous
 62
     7
100
AcDbCircle
 10
5947.9719183146
 20
5428.3926043574
 30
0.0
 40
201.1999999999989
100
AcDbArc
 50
288.2898993817
 51
309.2240685987
  0
ARC
  5
74
330
1F
100
AcDbEntity
  8
0
  6
Continuous
 62
     7
100
AcDbCircle
 10
6000.0655923576
 20
5428.3926043574
 30
0.0
 40
201.199999999999
100
AcDbArc
 50
230.7759314013
 51
251.7101006183
  0
ARC
  5
75
330
1F
100
AcDbEntity
  8
0
  6
Continuous
 62
     7
100
AcDbCircle
 10
6547.9719183146
 20
5428.3926043574
 30
0.0
 40
201.1999999999989
100
AcDbArc
 50
288.2898993817
 51
309.2240685987
  0
ARC
  5
76
330
1F
100
AcDbEntity
  8
0
  6
Continuous
 62
     7
100
AcDbCircle
 10
6600.0655923576
 20
5428.3926043574
 30
0.0
 40
201.1999999999995
100
AcDbArc
 50
230.7759314013
 51
251.7101006183
  0
ARC
  5
77
330
1F
100
AcDbEntity
  8
0
  6
Continuous
 62
     7
100
AcDbCircle
 10
6534.162322162
 20
5229.001634207
 30
0.0
 40
8.800000000001019
100
AcDbArc
 50
60.9453852781
 51
71.7100741333
  0
ARC
  5
78
330
1F
100
AcDbEntity
  8
0
  6
Continuous
 62
     7
100
AcDbCircle
 10
6613.8751857153
 20
5229.0016332832
 30
0.0
 40
8.800000000000537
100
AcDbArc
 50
108.2899067011
 51
119.054602337
  0
ARC
  5
79
330
1F
100
AcDbEntity
  8
0
  6
Continuous
 62
     7
100
AcDbCircle
 10
5934.1623368771
 20
5229.0016293433
 30
0.0
 40
8.800000000000802
100
AcDbArc
 50
60.9454504843
 51
71.7101750396
  0
ARC
  5
7A
330
1F
100
AcDbEntity
  8
0
  6
Continuous
 62
     7
100
AcDbCircle
 10
6013.8751636428
 20
5229.0016259878
 30
0.0
 40
8.799999999999775
100
AcDbArc
 50
108.289755343
 51
119.0545045288
  0
ARC
  5
7B
330
1F
100
AcDbEntity
  8
0
  6
Continuous
 62
     7
100
AcDbCircle
 10
6549.0187501805
 20
5185.3557026396
 30
0.0
 40
3.000000000000015
100
AcDbArc
 50
179.9999550342
 51
270.0001161137
  0
ARC
  5
7C
330
1F
100
AcDbEntity
  8
0
  6
Continuous
 62
     7
100
AcDbCircle
 10
6599.0187593596
 20
5185.3557026396
 30
0.0
 40
2.999999999999794
100
AcDbArc
 50
269.9998838882
 51
0.0000449658
  0
ARC
  5
7D
330
1F
100
AcDbEntity
  8
0
  6
Continuous
 62
     7
100
AcDbCircle
 10
5949.0187412398
 20
5185.3557026395
 30
0.0
 40
3.000000000000015
100
AcDbArc
 50
179.9999550329
 51
270.0004007057
  0
ARC
  5
7E
330
1F
100
AcDbEntity
  8
0
  6
Continuous
 62
     7
100
AcDbCircle
 10
5999.0187653201
 20
5185.3557026395
 30
0.0
 40
2.999999999999697
100
AcDbArc
 50
269.9995992962
 51
0.0000449671
  0
ARC
  5
7F
330
1F
100
AcDbEntity
  8
0
  6
Continuous
 62
     7
100
AcDbCircle
 10
6549.6891040446
 20
5141.6557033519
 30
0.0
 40
2.999999999999296
100
AcDbArc
 50
90.0000791997
 51
173.3455640148
  0
ARC
  5
80
330
1F
100
AcDbEntity
  8
0
  6
Continuous
 62
     7
100
AcDbCircle
 10
6598.3484054955
 20
5141.6557033519
 30
0.0
 40
2.999999999998287
100
AcDbArc
 50
6.6544359852
 51
89.9999207984
  0
ARC
  5
81
330
1F
100
AcDbEntity
  8
0
  6
Continuous
 62
     7
100
AcDbCircle
 10
6549.8969230949
 20
5017.6557025323
 30
0.0
 40
3.000000000000903
100
AcDbArc
 50
185.8481372346
 51
270.0000629848
  0
ARC
  5
82
330
1F
100
AcDbEntity
  8
0
  6
Continuous
 62
     7
100
AcDbCircle
 10
6598.1405864453
 20
5017.6557025323
 30
0.0
 40
2.999999999999994
100
AcDbArc
 50
269.9999370133
 51
354.1518627654
  0
ARC
  5
83
330
1F
100
AcDbEntity
  8
0
  6
Continuous
 62
     7
100
AcDbCircle
 10
6554.0187603133
 20
5158.1557032625
 30
0.0
 40
3.00000000000095
100
AcDbArc
 50
90.0001684783
 51
180.000009391
  0
ARC
  5
84
330
1F
100
AcDbEntity
  8
0
  6
Continuous
 62
     7
100
AcDbCircle
 10
6594.0187492268
 20
5158.1557032625
 30
0.0
 40
3.00000000000004
100
AcDbArc
 50
359.999990609
 51
89.9998315218
  0
ARC
  5
85
330
1F
100
AcDbEntity
  8
0
  6
Continuous
 62
     7
100
AcDbCircle
 10
5949.6891100051
 20
5141.6557033519
 30
0.0
 40
3.000000000000304
100
AcDbArc
 50
90.0000792016
 51
173.3455640148
  0
ARC
  5
86
330
1F
100
AcDbEntity
  8
0
  6
Continuous
 62
     7
100
AcDbCircle
 10
5998.3483965548
 20
5141.6557033519
 30
0.0
 40
3.000000000000304
100
AcDbArc
 50
6.6544359852
 51
89.9999207984
  0
ARC
  5
87
330
1F
100
AcDbEntity
  8
0
  6
Continuous
 62
     7
100
AcDbCircle
 10
5949.8969290554
 20
5017.6557025323
 30
0.0
 40
3.000000000000612
100
AcDbArc
 50
185.8481372342
 51
269.9997783928
  0
ARC
  5
88
330
1F
100
AcDbEntity
  8
0
  6
Continuous
 62
     7
100
AcDbCircle
 10
5998.1405775046
 20
5017.6557025323
 30
0.0
 40
3.000000000000612
100
AcDbArc
 50
270.0002216053
 51
354.1518627658
  0
ARC
  5
89
330
1F
100
AcDbEntity
  8
0
  6
Continuous
 62
     7
100
AcDbCircle
 10
5954.0187662738
 20
5158.1557032625
 30
0.0
 40
3.00000000000095
100
AcDbArc
 50
90.0001684783
 51
180.000009391
  0
ARC
  5
8A
330
1F
100
AcDbEntity
  8
0
  6
Continuous
 62
     7
100
AcDbCircle
 10
5994.0187700885
 20
5158.1557032626
 30
0.0
 40
2.999999999999698
100
AcDbArc
 50
359.9999906078
 51
90.0004007057
  0
CIRCLE
  5
8B
330
1F
100
AcDbEntity
  8
0
  6
Continuous
 62
     7
100
AcDbCircle
 10
6856.0187553361
 20
5224.7432056916
 30
0.0
 40
4.000000000000909
  0
CIRCLE
  5
8C
330
1F
100
AcDbEntity
  8
0
  6
Continuous
 62
     7
100
AcDbCircle
 10
5692.0187553361
 20
5224.7432056916
 30
0.0
 40
4.0
  0
ARC
  5
8D
330
1F
100
AcDbEntity
  8
0
  6
Continuous
 62
     7
100
AcDbCircle
 10
6574.0187553366
 20
5122.6557034939
 30
0.0
 40
39.9999999999985
100
AcDbArc
 50
0.0
 51
54.9003678056
  0
ARC
  5
8E
330
1F
100
AcDbEntity
  8
0
  6
Continuous
 62
     7
100
AcDbCircle
 10
6574.0187553366
 20
5122.6557034939
 30
0.0
 40
40.00000000000175
100
AcDbArc
 50
125.0996321963
 51
216.1070114046
  0
ARC
  5
8F
330
1F
100
AcDbEntity
  8
0
  6
Continuous
 62
     7
100
AcDbCircle
 10
6574.0187553366
 20
5122.6557034939
 30
0.0
 40
39.99999999999818
100
AcDbArc
 50
323.8929885931
 51
0.0
  0
ARC
  5
90
330
1F
100
AcDbEntity
  8
0
  6
Continuous
 62
     7
100
AcDbCircle
 10
5974.0187553366
 20
5122.6557034939
 30
0.0
 40
40.00000000000081
100
AcDbArc
 50
0.0
 51
54.9003678056
  0
ARC
  5
91
330
1F
100
AcDbEntity
  8
0
  6
Continuous
 62
     7
100
AcDbCircle
 10
5974.0187553366
 20
5122.6557034939
 30
0.0
 40
40.00000000000219
100
AcDbArc
 50
125.0996321963
 51
216.1070114046
  0
ARC
  5
92
330
1F
100
AcDbEntity
  8
0
  6
Continuous
 62
     7
100
AcDbCircle
 10
5974.0187553366
 20
5122.6557034939
 30
0.0
 40
40.0
100
AcDbArc
 50
323.8929885931
 51
0.0
  0
ARC
  5
93
330
1F
100
AcDbEntity
  8
0
  6
Continuous
 62
     7
100
AcDbCircle
 10
7580.9451590788
 20
5229.0016899822
 30
0.0
 40
8.800000000000283
100
AcDbArc
 50
108.2910480579
 51
119.0553624769
  0
ARC
  5
94
330
1F
100
AcDbEntity
  8
0
  6
Continuous
 62
     7
100
AcDbCircle
 10
7516.0886214873
 20
5185.3557026395
 30
0.0
 40
3.000000000000015
100
AcDbArc
 50
179.9999550329
 51
270.0004007038
  0
ARC
  5
95
330
1F
100
AcDbEntity
  8
0
  6
Continuous
 62
     7
100
AcDbCircle
 10
7566.0886157653
 20
5185.3557026395
 30
0.0
 40
3.000000000000015
100
AcDbArc
 50
269.9995992943
 51
0.0000449671
  0
ARC
  5
96
330
1F
100
AcDbEntity
  8
0
  6
Continuous
 62
     7
100
AcDbCircle
 10
7275.9940212867
 20
5142.655702577
 30
0.0
 40
20.00000000000091
100
AcDbArc
 50
0.0000039488
 51
89.9999453587
  0
ARC
  5
97
330
1F
100
AcDbEntity
  8
0
  6
Continuous
 62
     7
100
AcDbCircle
 10
7275.9940212867
 20
5102.6557025025
 30
0.0
 40
20.00000000000091
100
AcDbArc
 50
270.0000546413
 51
0.0000040554
  0
ARC
  5
98
330
1F
100
AcDbEntity
  8
0
  6
Continuous
 62
     7
100
AcDbCircle
 10
7565.418247
 20
5141.6557033521
 30
0.0
 40
2.999999999997461
100
AcDbArc
 50
6.6544359815
 51
89.999351616
  0
ARC
  5
99
330
1F
100
AcDbEntity
  8
0
  6
Continuous
 62
     7
100
AcDbCircle
 10
7516.9667198959
 20
5017.6557025322
 30
0.0
 40
3.000000000000631
100
AcDbArc
 50
185.8481372336
 51
270.0003475766
  0
ARC
  5
9A
330
1F
100
AcDbEntity
  8
0
  6
Continuous
 62
     7
100
AcDbCircle
 10
7565.2103981474
 20
5017.6557025322
 30
0.0
 40
3.000000000000631
100
AcDbArc
 50
269.9996524234
 51
354.1518627664
  0
ARC
  5
9B
330
1F
100
AcDbEntity
  8
0
  6
Continuous
 62
     7
100
AcDbCircle
 10
7484.0885566375
 20
5145.6557040077
 30
0.0
 40
2.999999999999697
100
AcDbArc
 50
89.9995992962
 51
180.0000093941
  0
ARC
  5
9C
330
1F
100
AcDbEntity
  8
0
  6
Continuous
 62
     7
100
AcDbCircle
 10
7484.0885566375
 20
5099.6557047972
 30
0.0
 40
2.999999999999697
100
AcDbArc
 50
180.0000261809
 51
270.0004007038
  0
ARC
  5
9D
330
1F
100
AcDbEntity
  8
0
  6
Continuous
 62
     7
100
AcDbCircle
 10
7521.0886167189
 20
5158.1557032626
 30
0.0
 40
3.00000000000095
100
AcDbArc
 50
89.9995992944
 51
180.0000093922
  0
ARC
  5
9E
330
1F
100
AcDbEntity
  8
0
  6
Continuous
 62
     7
100
AcDbCircle
 10
7561.0886205336
 20
5158.1557032626
 30
0.0
 40
3.00000000000095
100
AcDbArc
 50
359.9999906078
 51
90.0004007038
  0
ARC
  5
9F
330
1F
100
AcDbEntity
  8
0
  6
Continuous
 62
     7
100
AcDbCircle
 10
7447.0886024308
 20
5242.3557008515
 30
0.0
 40
42.50000000000112
100
AcDbArc
 50
227.444102089
 51
270.0000462616
  0
ARC
  5
A0
330
1F
100
AcDbEntity
  8
0
  6
Continuous
 62
     7
100
AcDbCircle
 10
7264.2886079451
 20
5374.7432049521
 30
0.0
 40
2.000000000001378
100
AcDbArc
 50
179.9998838825
 51
269.9992623398
  0
ARC
  5
A1
330
1F
100
AcDbEntity
  8
0
  6
Continuous
 62
     7
100
AcDbCircle
 10
7518.7199100879
 20
5141.7969143864
 30
0.0
 40
2.860574337893107
100
AcDbArc
 50
92.0244078242
 51
175.8616872387
  0
ARC
  5
A2
330
1F
100
AcDbEntity
  8
0
  6
Continuous
 62
     7
100
AcDbCircle
 10
5974.018839512
 20
4503.97941593
 30
0.0
 40
8.552641741591147
100
AcDbArc
 50
275.030210219
 51
299.7665292669
  0
ARC
  5
A3
330
1F
100
AcDbEntity
  8
0
  6
Continuous
 62
     7
100
AcDbCircle
 10
5974.0186670479
 20
4503.97941593
 30
0.0
 40
8.552641741591147
100
AcDbArc
 50
240.2334707331
 51
264.969789781
  0
ARC
  5
A4
330
1F
100
AcDbEntity
  8
0
  6
Continuous
 62
     7
100
AcDbCircle
 10
6574.018830841
 20
4503.9794143798
 30
0.0
 40
8.552641741591037
100
AcDbArc
 50
275.030328659
 51
299.7665501849
  0
ARC
  5
A5
330
1F
100
AcDbEntity
  8
0
  6
Continuous
 62
     7
100
AcDbCircle
 10
6574.018678699
 20
4503.9794143798
 30
0.0
 40
8.552641741589111
100
AcDbArc
 50
240.2334498153
 51
264.9696713417
  0
CIRCLE
  5
A6
330
1F
100
AcDbEntity
  8
0
  6
Continuous
 62
     7
100
AcDbCircle
 10
5974.0187553361
 20
4344.8864792302
 30
0.0
 40
169.776170925541
  0
CIRCLE
  5
A7
330
1F
100
AcDbEntity
  8
0
  6
Continuous
 62
     7
100
AcDbCircle
 10
6574.0187553361
 20
4344.8864792302
 30
0.0
 40
169.776170925541
  0
CIRCLE
  5
A8
330
1F
100
AcDbEntity
  8
0
  6
Continuous
 62
     7
100
AcDbCircle
 10
6574.0187553361
 20
4344.8864792302
 30
0.0
 40
165.0
  0
CIRCLE
  5
A9
330
1F
100
AcDbEntity
  8
0
  6
Continuous
 62
     7
100
AcDbCircle
 10
5974.0187553361
 20
4344.8864792302
 30
0.0
 40
165.0
  0
CIRCLE
  5
AA
330
1F
100
AcDbEntity
  8
0
  6
Continuous
 62
     7
100
AcDbCircle
 10
5974.0187553361
 20
4344.8864792302
 30
0.0
 40
36.71817853400444
  0
CIRCLE
  5
AB
330
1F
100
AcDbEntity
  8
0
  6
Continuous
 62
     7
100
AcDbCircle
 10
6574.0187553361
 20
4344.8864792302
 30
0.0
 40
36.71817853400353
  0
ARC
  5
AC
330
1F
100
AcDbEntity
  8
0
  6
Continuous
 62
     7
100
AcDbCircle
 10
6574.0187553361
 20
4344.8864792302
 30
0.0
 40
15.00000000000091
100
AcDbArc
 50
270.0
 51
289.4629509606
  0
ARC
  5
AD
330
1F
100
AcDbEntity
  8
0
  6
Continuous
 62
     7
100
AcDbCircle
 10
6574.0187553361
 20
4344.8864792302
 30
0.0
 40
15.00000000000205
100
AcDbArc
 50
310.5370510532
 51
349.4629489746
  0
ARC
  5
AE
330
1F
100
AcDbEntity
  8
0
  6
Continuous
 62
     7
100
AcDbCircle
 10
6574.0187553361
 20
4344.8864792302
 30
0.0
 40
15.00000000000066
100
AcDbArc
 50
10.5370495964
 51
49.4629504113
  0
ARC
  5
AF
330
1F
100
AcDbEntity
  8
0
  6
Continuous
 62
     7
100
AcDbCircle
 10
6574.0187553361
 20
4344.8864792302
 30
0.0
 40
15.00000000000123
100
AcDbArc
 50
70.5370490849
 51
109.4629509179
  0
ARC
  5
B0
330
1F
100
AcDbEntity
  8
0
  6
Continuous
 62
     7
100
AcDbCircle
 10
6574.0187553361
 20
4344.8864792302
 30
0.0
 40
15.00000000000021
100
AcDbArc
 50
130.5370509089
 51
169.4629490646
  0
ARC
  5
B1
330
1F
100
AcDbEntity
  8
0
  6
Continuous
 62
     7
100
AcDbCircle
 10
6574.0187553361
 20
4344.8864792302
 30
0.0
 40
15.00000000000078
100
AcDbArc
 50
190.5370486873
 51
229.4629513178
  0
ARC
  5
B2
330
1F
100
AcDbEntity
  8
0
  6
Continuous
 62
     7
100
AcDbCircle
 10
6574.0187553361
 20
4344.8864792302
 30
0.0
 40
15.00000000000098
100
AcDbArc
 50
250.5370490407
 51
270.0
  0
ARC
  5
B3
330
1F
100
AcDbEntity
  8
0
  6
Continuous
 62
     7
100
AcDbCircle
 10
5974.0187553361
 20
4344.8864792302
 30
0.0
 40
15.00000000000127
100
AcDbArc
 50
270.0
 51
289.4629509206
  0
ARC
  5
B4
330
1F
100
AcDbEntity
  8
0
  6
Continuous
 62
     7
100
AcDbCircle
 10
5974.0187553361
 20
4344.8864792302
 30
0.0
 40
15.00000000000105
100
AcDbArc
 50
310.5370510344
 51
349.4629489932
  0
ARC
  5
B5
330
1F
100
AcDbEntity
  8
0
  6
Continuous
 62
     7
100
AcDbCircle
 10
5974.0187553361
 20
4344.8864792302
 30
0.0
 40
14.99999999999979
100
AcDbArc
 50
10.5370493896
 51
49.4629506151
  0
ARC
  5
B6
330
1F
100
AcDbEntity
  8
0
  6
Continuous
 62
     7
100
AcDbCircle
 10
5974.0187553361
 20
4344.8864792302
 30
0.0
 40
14.99999999999972
100
AcDbArc
 50
70.5370491101
 51
109.4629508869
  0
ARC
  5
B7
330
1F
100
AcDbEntity
  8
0
  6
Continuous
 62
     7
100
AcDbCircle
 10
5974.0187553361
 20
4344.8864792302
 30
0.0
 40
15.00000000000015
100
AcDbArc
 50
130.537049571
 51
169.4629504216
  0
ARC
  5
B8
330
1F
100
AcDbEntity
  8
0
  6
Continuous
 62
     7
100
AcDbCircle
 10
5974.0187553361
 20
4344.8864792302
 30
0.0
 40
15.00000000000098
100
AcDbArc
 50
190.5370479087
 51
229.4629521074
  0
ARC
  5
B9
330
1F
100
AcDbEntity
  8
0
  6
Continuous
 62
     7
100
AcDbCircle
 10
5974.0187553361
 20
4344.8864792302
 30
0.0
 40
15.00000000000102
100
AcDbArc
 50
250.5370490808
 51
270.0
  0
ARC
  5
BA
330
1F
100
AcDbEntity
  8
0
  6
Continuous
 62
     7
100
AcDbCircle
 10
6574.0187547701
 20
4457.0749941992
 30
0.0
 40
44.11687698538849
100
AcDbArc
 50
75.2882307341
 51
104.7117692659
  0
ARC
  5
BB
330
1F
100
AcDbEntity
  8
0
  6
Continuous
 62
     7
100
AcDbCircle
 10
6574.5677536886
 20
4536.7984609552
 30
0.0
 40
41.01233414426713
100
AcDbArc
 50
272.8975675869
 51
285.0578624296
  0
ARC
  5
BC
330
1F
100
AcDbEntity
  8
0
  6
Continuous
 62
     7
100
AcDbCircle
 10
6573.4697558516
 20
4536.7984609552
 30
0.0
 40
41.01233414426736
100
AcDbArc
 50
254.9421375704
 51
267.1024324131
  0
ARC
  5
BD
330
1F
100
AcDbEntity
  8
0
  6
Continuous
 62
     7
100
AcDbCircle
 10
5974.01875328
 20
4457.0748949516
 30
0.0
 40
44.11697487139634
100
AcDbArc
 50
75.2882541089
 51
104.7117458911
  0
ARC
  5
BE
330
1F
100
AcDbEntity
  8
0
  6
Continuous
 62
     7
100
AcDbCircle
 10
5974.5677075648
 20
4536.7987906332
 30
0.0
 40
41.01266603366847
100
AcDbArc
 50
272.897616975
 51
285.0578130412
  0
ARC
  5
BF
330
1F
100
AcDbEntity
  8
0
  6
Continuous
 62
     7
100
AcDbCircle
 10
5973.4698581428
 20
4536.7991650195
 30
0.0
 40
41.01304293127259
100
AcDbArc
 50
254.9422430441
 51
267.1023269402
  0
ARC
  5
C0
330
1F
100
AcDbEntity
  8
0
  6
Continuous
 62
     7
100
AcDbCircle
 10
6574.0187553361
 20
4344.8864792302
 30
0.0
 40
5.250000000000043
100
AcDbArc
 50
98.2132107017
 51
261.7867892983
  0
ARC
  5
C1
330
1F
100
AcDbEntity
  8
0
  6
Continuous
 62
     7
100
AcDbCircle
 10
6574.0187553361
 20
4344.8864792302
 30
0.0
 40
5.250000000000043
100
AcDbArc
 50
278.2132107017
 51
81.7867892983
  0
ARC
  5
C2
330
1F
100
AcDbEntity
  8
0
  6
Continuous
 62
     7
100
AcDbCircle
 10
6574.0187553361
 20
4344.8864792302
 30
0.0
 40
5.249999999999143
100
AcDbArc
 50
81.7867892983
 51
98.2132107017
  0
ARC
  5
C3
330
1F
100
AcDbEntity
  8
0
  6
Continuous
 62
     7
100
AcDbCircle
 10
6574.0187553361
 20
4344.8864792302
 30
0.0
 40
5.250000000000043
100
AcDbArc
 50
261.7867892983
 51
278.2132107017
  0
ARC
  5
C4
330
1F
100
AcDbEntity
  8
0
  6
Continuous
 62
     7
100
AcDbCircle
 10
5974.0187553361
 20
4344.8864792302
 30
0.0
 40
5.250000000000043
100
AcDbArc
 50
278.2132107017
 51
81.7867892983
  0
ARC
  5
C5
330
1F
100
AcDbEntity
  8
0
  6
Continuous
 62
     7
100
AcDbCircle
 10
5974.0187553361
 20
4344.8864792302
 30
0.0
 40
5.250000000000043
100
AcDbArc
 50
98.2132107017
 51
261.7867892983
  0
ARC
  5
C6
330
1F
100
AcDbEntity
  8
0
  6
Continuous
 62
     7
100
AcDbCircle
 10
5974.0187553361
 20
4344.8864792302
 30
0.0
 40
5.249999999999143
100
AcDbArc
 50
81.7867892983
 51
98.2132107017
  0
ARC
  5
C7
330
1F
100
AcDbEntity
  8
0
  6
Continuous
 62
     7
100
AcDbCircle
 10
5974.0187553361
 20
4344.8864792302
 30
0.0
 40
5.250000000000043
100
AcDbArc
 50
261.7867892983
 51
278.2132107017
  0
ARC
  5
C8
330
1F
100
AcDbEntity
  8
0
  6
Continuous
 62
     7
100
AcDbCircle
 10
5974.01875328
 20
4487.4749071479
 30
0.0
 40
12.54768403338283
100
AcDbArc
 50
86.5733191066
 51
93.4266808934
  0
ARC
  5
C9
330
1F
100
AcDbEntity
  8
0
  6
Continuous
 62
     7
100
AcDbCircle
 10
5974.01875328
 20
4508.2035936861
 30
0.0
 40
12.54768403338374
100
AcDbArc
 50
266.5733191066
 51
273.4266808934
  0
ARC
  5
CA
330
1F
100
AcDbEntity
  8
0
  6
Continuous
 62
     7
100
AcDbCircle
 10
6574.0187547701
 20
4487.4744913047
 30
0.0
 40
12.54809957847761
100
AcDbArc
 50
86.5733986398
 51
93.4266013602
  0
ARC
  5
CB
330
1F
100
AcDbEntity
  8
0
  6
Continuous
 62
     7
100
AcDbCircle
 10
6574.0187547701
 20
4508.2040095294
 30
0.0
 40
12.54809957847748
100
AcDbArc
 50
266.5733986397
 51
273.4266013603
  0
CIRCLE
  5
CC
330
1F
100
AcDbEntity
  8
0
  6
Continuous
 62
     7
100
AcDbCircle
 10
5974.0187553361
 20
4344.8864792302
 30
0.0
 40
24.96512544439429
  0
CIRCLE
  5
CD
330
1F
100
AcDbEntity
  8
0
  6
Continuous
 62
     7
100
AcDbCircle
 10
5974.0187553361
 20
4344.8864792302
 30
0.0
 40
35.00000000000091
  0
CIRCLE
  5
CE
330
1F
100
AcDbEntity
  8
0
  6
Continuous
 62
     7
100
AcDbCircle
 10
5974.0187553361
 20
4344.8864792302
 30
0.0
 40
35.16921944985916
  0
CIRCLE
  5
CF
330
1F
100
AcDbEntity
  8
0
  6
Continuous
 62
     7
100
AcDbCircle
 10
5974.0187553361
 20
4344.8864792302
 30
0.0
 40
22.00000000000091
  0
CIRCLE
  5
D0
330
1F
100
AcDbEntity
  8
0
  6
Continuous
 62
     7
100
AcDbCircle
 10
5974.0187553361
 20
4344.8864792302
 30
0.0
 40
20.50000000000091
  0
CIRCLE
  5
D1
330
1F
100
AcDbEntity
  8
0
  6
Continuous
 62
     7
100
AcDbCircle
 10
5974.0187553361
 20
4344.8864792302
 30
0.0
 40
19.48700763430497
  0
CIRCLE
  5
D2
330
1F
100
AcDbEntity
  8
0
  6
Continuous
 62
     7
100
AcDbCircle
 10
5974.0187553361
 20
4344.8864792302
 30
0.0
 40
5.700000000000728
  0
CIRCLE
  5
D3
330
1F
100
AcDbEntity
  8
0
  6
Continuous
 62
     7
100
AcDbCircle
 10
5974.0187553361
 20
4358.8864792302
 30
0.0
 40
5.000000000000909
  0
CIRCLE
  5
D4
330
1F
100
AcDbEntity
  8
0
  6
Continuous
 62
     7
100
AcDbCircle
 10
5986.1431109891
 20
4351.8864792302
 30
0.0
 40
5.0
  0
CIRCLE
  5
D5
330
1F
100
AcDbEntity
  8
0
  6
Continuous
 62
     7
100
AcDbCircle
 10
5986.1431109891
 20
4337.8864792302
 30
0.0
 40
4.999999999999091
  0
CIRCLE
  5
D6
330
1F
100
AcDbEntity
  8
0
  6
Continuous
 62
     7
100
AcDbCircle
 10
5974.0187553361
 20
4330.8864792302
 30
0.0
 40
5.000000000000909
  0
CIRCLE
  5
D7
330
1F
100
AcDbEntity
  8
0
  6
Continuous
 62
     7
100
AcDbCircle
 10
5961.8943996831
 20
4337.8864792302
 30
0.0
 40
4.999999999999091
  0
CIRCLE
  5
D8
330
1F
100
AcDbEntity
  8
0
  6
Continuous
 62
     7
100
AcDbCircle
 10
5961.8943996831
 20
4351.8864792302
 30
0.0
 40
5.0
  0
CIRCLE
  5
D9
330
1F
100
AcDbEntity
  8
0
  6
Continuous
 62
     7
100
AcDbCircle
 10
6574.0187553361
 20
4344.8864792302
 30
0.0
 40
24.96512544439429
  0
CIRCLE
  5
DA
330
1F
100
AcDbEntity
  8
0
  6
Continuous
 62
     7
100
AcDbCircle
 10
6574.0187553361
 20
4344.8864792302
 30
0.0
 40
35.00000000000091
  0
CIRCLE
  5
DB
330
1F
100
AcDbEntity
  8
0
  6
Continuous
 62
     7
100
AcDbCircle
 10
6574.0187553361
 20
4344.8864792302
 30
0.0
 40
35.16921944985916
  0
CIRCLE
  5
DC
330
1F
100
AcDbEntity
  8
0
  6
Continuous
 62
     7
100
AcDbCircle
 10
6574.0187553361
 20
4344.8864792302
 30
0.0
 40
22.00000000000091
  0
CIRCLE
  5
DD
330
1F
100
AcDbEntity
  8
0
  6
Continuous
 62
     7
100
AcDbCircle
 10
6574.0187553361
 20
4344.8864792302
 30
0.0
 40
20.50000000000091
  0
CIRCLE
  5
DE
330
1F
100
AcDbEntity
  8
0
  6
Continuous
 62
     7
100
AcDbCircle
 10
6574.0187553361
 20
4344.8864792302
 30
0.0
 40
19.48700763430406
  0
CIRCLE
  5
DF
330
1F
100
AcDbEntity
  8
0
  6
Continuous
 62
     7
100
AcDbCircle
 10
6574.0187553361
 20
4344.8864792302
 30
0.0
 40
5.700000000000728
  0
CIRCLE
  5
E0
330
1F
100
AcDbEntity
  8
0
  6
Continuous
 62
     7
100
AcDbCircle
 10
6574.0187553361
 20
4358.8864792302
 30
0.0
 40
5.000000000000909
  0
CIRCLE
  5
E1
330
1F
100
AcDbEntity
  8
0
  6
Continuous
 62
     7
100
AcDbCircle
 10
6586.1431109891
 20
4351.8864792302
 30
0.0
 40
5.0
  0
CIRCLE
  5
E2
330
1F
100
AcDbEntity
  8
0
  6
Continuous
 62
     7
100
AcDbCircle
 10
6586.1431109891
 20
4337.8864792302
 30
0.0
 40
4.999999999999091
  0
CIRCLE
  5
E3
330
1F
100
AcDbEntity
  8
0
  6
Continuous
 62
     7
100
AcDbCircle
 10
6574.0187553361
 20
4330.8864792302
 30
0.0
 40
5.000000000000909
  0
CIRCLE
  5
E4
330
1F
100
AcDbEntity
  8
0
  6
Continuous
 62
     7
100
AcDbCircle
 10
6561.8943996831
 20
4337.8864792302
 30
0.0
 40
5.0
  0
CIRCLE
  5
E5
330
1F
100
AcDbEntity
  8
0
  6
Continuous
 62
     7
100
AcDbCircle
 10
6561.8943996831
 20
4351.8864792302
 30
0.0
 40
5.000000000000909
  0
LINE
  5
E6
330
1F
100
AcDbEntity
  8
0
  6
Continuous
 62
     7
100
AcDbLine
 10
5938.4359873431
 20
5236.6942174445
 30
0.0
 11
5939.0452958243
 21
5236.355700315
 31
0.0
  0
LINE
  5
E7
330
1F
100
AcDbEntity
  8
0
  6
Continuous
 62
     7
100
AcDbLine
 10
6008.9922107356
 20
5236.355700315
 30
0.0
 11
6009.6015192168
 21
5236.6942174445
 31
0.0
  0
LINE
  5
E8
330
1F
100
AcDbEntity
  8
0
  6
Continuous
 62
     7
100
AcDbLine
 10
6538.4359813826
 20
5236.6942174445
 30
0.0
 11
6539.045304765
 21
5236.355700315
 31
0.0
  0
LINE
  5
E9
330
1F
100
AcDbEntity
  8
0
  6
Continuous
 62
     7
100
AcDbLine
 10
6608.9922047751
 20
5236.355700315
 30
0.0
 11
6609.6015281575
 21
5236.6942174445
 31
0.0
  0
LINE
  5
EA
330
1F
100
AcDbEntity
  8
0
  6
Continuous
 62
     7
100
AcDbLine
 10
6544.0187610286
 20
5196.3557012091
 30
0.0
 11
6546.0187501805
 21
5192.3557042788
 31
0.0
  0
LINE
  5
EB
330
1F
100
AcDbEntity
  8
0
  6
Continuous
 62
     7
100
AcDbLine
 10
6602.0187593596
 20
5192.3557042788
 30
0.0
 11
6604.0187485116
 21
5196.3557012091
 31
0.0
  0
LINE
  5
EC
330
1F
100
AcDbEntity
  8
0
  6
Continuous
 62
     7
100
AcDbLine
 10
6546.0187501805
 20
5192.3557042788
 30
0.0
 11
6546.0187501805
 21
5185.355704994
 31
0.0
  0
LINE
  5
ED
330
1F
100
AcDbEntity
  8
0
  6
Continuous
 62
     7
100
AcDbLine
 10
6602.0187593596
 20
5185.355704994
 30
0.0
 11
6602.0187593596
 21
5192.3557042788
 31
0.0
  0
LINE
  5
EE
330
1F
100
AcDbEntity
  8
0
  6
Continuous
 62
     7
100
AcDbLine
 10
6558.0187595981
 20
5182.3557026396
 30
0.0
 11
6558.0187595981
 21
5161.1557032625
 31
0.0
  0
LINE
  5
EF
330
1F
100
AcDbEntity
  8
0
  6
Continuous
 62
     7
100
AcDbLine
 10
6558.0187595981
 20
5147.1557037617
 30
0.0
 11
6558.0187595981
 21
5144.6557033519
 31
0.0
  0
LINE
  5
F0
330
1F
100
AcDbEntity
  8
0
  6
Continuous
 62
     7
100
AcDbLine
 10
6590.0187499421
 20
5144.6557033519
 30
0.0
 11
6590.0187499421
 21
5147.1557037617
 31
0.0
  0
LINE
  5
F1
330
1F
100
AcDbEntity
  8
0
  6
Continuous
 62
     7
100
AcDbLine
 10
6590.0187499421
 20
5161.1557032625
 30
0.0
 11
6590.0187499421
 21
5182.3557026396
 31
0.0
  0
LINE
  5
F2
330
1F
100
AcDbEntity
  8
0
  6
Continuous
 62
     7
100
AcDbLine
 10
5944.018766989
 20
5196.3557012091
 30
0.0
 11
5946.0187412398
 21
5192.3557042788
 31
0.0
  0
LINE
  5
F3
330
1F
100
AcDbEntity
  8
0
  6
Continuous
 62
     7
100
AcDbLine
 10
6002.0187653201
 20
5192.3557042788
 30
0.0
 11
6004.0187693732
 21
5196.3557012091
 31
0.0
  0
LINE
  5
F4
330
1F
100
AcDbEntity
  8
0
  6
Continuous
 62
     7
100
AcDbLine
 10
5946.0187412398
 20
5192.3557042788
 30
0.0
 11
5946.0187412398
 21
5185.355704994
 31
0.0
  0
LINE
  5
F5
330
1F
100
AcDbEntity
  8
0
  6
Continuous
 62
     7
100
AcDbLine
 10
6002.0187653201
 20
5185.355704994
 30
0.0
 11
6002.0187653201
 21
5192.3557042788
 31
0.0
  0
LINE
  5
F6
330
1F
100
AcDbEntity
  8
0
  6
Continuous
 62
     7
100
AcDbLine
 10
5958.0187655585
 20
5182.3557026396
 30
0.0
 11
5958.0187655585
 21
5161.1557032625
 31
0.0
  0
LINE
  5
F7
330
1F
100
AcDbEntity
  8
0
  6
Continuous
 62
     7
100
AcDbLine
 10
5958.0187655585
 20
5147.1557037617
 30
0.0
 11
5958.0187655585
 21
5144.6557033519
 31
0.0
  0
LINE
  5
F8
330
1F
100
AcDbEntity
  8
0
  6
Continuous
 62
     7
100
AcDbLine
 10
5990.0187410014
 20
5144.6557033519
 30
0.0
 11
5990.0187410014
 21
5147.1557037617
 31
0.0
  0
LINE
  5
F9
330
1F
100
AcDbEntity
  8
0
  6
Continuous
 62
     7
100
AcDbLine
 10
5990.0187410014
 20
5161.1557032625
 30
0.0
 11
5990.0187410014
 21
5182.3557026396
 31
0.0
  0
LINE
  5
FA
330
1F
100
AcDbEntity
  8
0
  6
Continuous
 62
     7
100
AcDbLine
 10
6608.0187566178
 20
5084.6557028304
 30
0.0
 11
6601.3281948464
 21
5142.0033460195
 31
0.0
  0
LINE
  5
FB
330
1F
100
AcDbEntity
  8
0
  6
Continuous
 62
     7
100
AcDbLine
 10
6546.7093146937
 20
5142.0033460195
 30
0.0
 11
6540.0187529223
 21
5084.6557028304
 31
0.0
  0
LINE
  5
FC
330
1F
100
AcDbEntity
  8
0
  6
Continuous
 62
     7
100
AcDbLine
 10
6540.0187529223
 20
5084.6557028304
 30
0.0
 11
6546.9125367301
 21
5017.3500261913
 31
0.0
  0
LINE
  5
FD
330
1F
100
AcDbEntity
  8
0
  6
Continuous
 62
     7
100
AcDbLine
 10
6601.1249728101
 20
5017.3500261913
 30
0.0
 11
6608.0187566178
 21
5084.6557028304
 31
0.0
  0
LINE
  5
FE
330
1F
100
AcDbEntity
  8
0
  6
Continuous
 62
     7
100
AcDbLine
 10
6599.01875328
 20
5147.1557037617
 30
0.0
 11
6597.0187492268
 21
5151.155703486
 31
0.0
  0
LINE
  5
FF
330
1F
100
AcDbEntity
  8
0
  6
Continuous
 62
     7
100
AcDbLine
 10
6551.0187603133
 20
5151.155703486
 30
0.0
 11
6549.0187562602
 21
5147.1557037617
 31
0.0
  0
LINE
  5
100
330
1F
100
AcDbEntity
  8
0
  6
Continuous
 62
     7
100
AcDbLine
 10
6551.0187603133
 20
5158.1557027708
 30
0.0
 11
6551.0187603133
 21
5151.155703486
 31
0.0
  0
LINE
  5
101
330
1F
100
AcDbEntity
  8
0
  6
Continuous
 62
     7
100
AcDbLine
 10
6597.0187492268
 20
5151.155703486
 30
0.0
 11
6597.0187492268
 21
5158.1557027708
 31
0.0
  0
LINE
  5
102
330
1F
100
AcDbEntity
  8
0
  6
Continuous
 62
     7
100
AcDbLine
 10
6558.0187595981
 20
5147.1557037617
 30
0.0
 11
6558.0187595981
 21
5144.6557033519
 31
0.0
  0
LINE
  5
103
330
1F
100
AcDbEntity
  8
0
  6
Continuous
 62
     7
100
AcDbLine
 10
6590.0187499421
 20
5144.6557033519
 30
0.0
 11
6590.0187499421
 21
5147.1557037617
 31
0.0
  0
LINE
  5
104
330
1F
100
AcDbEntity
  8
0
  6
Continuous
 62
     7
100
AcDbLine
 10
6008.0187476771
 20
5084.6557028304
 30
0.0
 11
6001.3281859057
 21
5142.0033460195
 31
0.0
  0
LINE
  5
105
330
1F
100
AcDbEntity
  8
0
  6
Continuous
 62
     7
100
AcDbLine
 10
5946.7093206542
 20
5142.0033460195
 30
0.0
 11
5940.0187588828
 21
5084.6557028304
 31
0.0
  0
LINE
  5
106
330
1F
100
AcDbEntity
  8
0
  6
Continuous
 62
     7
100
AcDbLine
 10
5940.0187588828
 20
5084.6557028304
 30
0.0
 11
5946.9125426906
 21
5017.3500261913
 31
0.0
  0
LINE
  5
107
330
1F
100
AcDbEntity
  8
0
  6
Continuous
 62
     7
100
AcDbLine
 10
6001.1249638694
 20
5017.3500261913
 30
0.0
 11
6008.0187476771
 21
5084.6557028304
 31
0.0
  0
LINE
  5
108
330
1F
100
AcDbEntity
  8
0
  6
Continuous
 62
     7
100
AcDbLine
 10
5999.0187443393
 20
5147.1557037617
 30
0.0
 11
5997.0187700885
 21
5151.155703486
 31
0.0
  0
LINE
  5
109
330
1F
100
AcDbEntity
  8
0
  6
Continuous
 62
     7
100
AcDbLine
 10
5951.0187662738
 20
5151.155703486
 30
0.0
 11
5949.0187622207
 21
5147.1557037617
 31
0.0
  0
LINE
  5
10A
330
1F
100
AcDbEntity
  8
0
  6
Continuous
 62
     7
100
AcDbLine
 10
5951.0187662738
 20
5158.1557027708
 30
0.0
 11
5951.0187662738
 21
5151.155703486
 31
0.0
  0
LINE
  5
10B
330
1F
100
AcDbEntity
  8
0
  6
Continuous
 62
     7
100
AcDbLine
 10
5997.0187700885
 20
5151.155703486
 30
0.0
 11
5997.0187700885
 21
5158.1557027708
 31
0.0
  0
LINE
  5
10C
330
1F
100
AcDbEntity
  8
0
  6
Continuous
 62
     7
100
AcDbLine
 10
5958.0187655585
 20
5147.1557037617
 30
0.0
 11
5958.0187655585
 21
5144.6557033519
 31
0.0
  0
LINE
  5
10D
330
1F
100
AcDbEntity
  8
0
  6
Continuous
 62
     7
100
AcDbLine
 10
5990.0187410014
 20
5144.6557033519
 30
0.0
 11
5990.0187410014
 21
5147.1557037617
 31
0.0
  0
LINE
  5
10E
330
1F
100
AcDbEntity
  8
0
  6
Continuous
 62
     7
100
AcDbLine
 10
6539.0187508958
 20
5236.355700315
 30
0.0
 11
6542.0187569755
 21
5229.3557010303
 31
0.0
  0
LINE
  5
10F
330
1F
100
AcDbEntity
  8
0
  6
Continuous
 62
     7
100
AcDbLine
 10
6606.0187525647
 20
5229.3557010303
 30
0.0
 11
6609.0187586444
 21
5236.355700315
 31
0.0
  0
LINE
  5
110
330
1F
100
AcDbEntity
  8
0
  6
Continuous
 62
     7
100
AcDbLine
 10
6542.0187569755
 20
5229.3557010303
 30
0.0
 11
6547.5187606709
 21
5223.8557047854
 31
0.0
  0
LINE
  5
111
330
1F
100
AcDbEntity
  8
0
  6
Continuous
 62
     7
100
AcDbLine
 10
6600.5187488692
 20
5223.8557047854
 30
0.0
 11
6606.0187525647
 21
5229.3557010303
 31
0.0
  0
LINE
  5
112
330
1F
100
AcDbEntity
  8
0
  6
Continuous
 62
     7
100
AcDbLine
 10
6544.5187545913
 20
5199.3556998382
 30
0.0
 11
6544.5187545913
 21
5196.3557012091
 31
0.0
  0
LINE
  5
113
330
1F
100
AcDbEntity
  8
0
  6
Continuous
 62
     7
100
AcDbLine
 10
6603.5187549489
 20
5196.3557012091
 30
0.0
 11
6603.5187549489
 21
5199.3556998382
 31
0.0
  0
LINE
  5
114
330
1F
100
AcDbEntity
  8
0
  6
Continuous
 62
     7
100
AcDbLine
 10
6547.5187606709
 20
5223.8557047854
 30
0.0
 11
6547.5187606709
 21
5199.3556998382
 31
0.0
  0
LINE
  5
115
330
1F
100
AcDbEntity
  8
0
  6
Continuous
 62
     7
100
AcDbLine
 10
6600.5187488692
 20
5199.3556998382
 30
0.0
 11
6600.5187488692
 21
5223.8557047854
 31
0.0
  0
LINE
  5
116
330
1F
100
AcDbEntity
  8
0
  6
Continuous
 62
     7
100
AcDbLine
 10
5939.0187419551
 20
5236.355700315
 30
0.0
 11
5942.0187629359
 21
5229.3557010303
 31
0.0
  0
LINE
  5
117
330
1F
100
AcDbEntity
  8
0
  6
Continuous
 62
     7
100
AcDbLine
 10
6006.018743624
 20
5229.3557010303
 30
0.0
 11
6009.0187646048
 21
5236.355700315
 31
0.0
  0
LINE
  5
118
330
1F
100
AcDbEntity
  8
0
  6
Continuous
 62
     7
100
AcDbLine
 10
5942.0187629359
 20
5229.3557010303
 30
0.0
 11
5947.5187517302
 21
5223.8557047854
 31
0.0
  0
LINE
  5
119
330
1F
100
AcDbEntity
  8
0
  6
Continuous
 62
     7
100
AcDbLine
 10
6000.5187548297
 20
5223.8557047854
 30
0.0
 11
6006.018743624
 21
5229.3557010303
 31
0.0
  0
LINE
  5
11A
330
1F
100
AcDbEntity
  8
0
  6
Continuous
 62
     7
100
AcDbLine
 10
5944.5187605517
 20
5199.3556998382
 30
0.0
 11
5944.5187605517
 21
5196.3557012091
 31
0.0
  0
LINE
  5
11B
330
1F
100
AcDbEntity
  8
0
  6
Continuous
 62
     7
100
AcDbLine
 10
6003.5187460082
 20
5196.3557012091
 30
0.0
 11
6003.5187460082
 21
5199.3556998382
 31
0.0
  0
LINE
  5
11C
330
1F
100
AcDbEntity
  8
0
  6
Continuous
 62
     7
100
AcDbLine
 10
5947.5187517302
 20
5223.8557047854
 30
0.0
 11
5947.5187517302
 21
5199.3556998382
 31
0.0
  0
LINE
  5
11D
330
1F
100
AcDbEntity
  8
0
  6
Continuous
 62
     7
100
AcDbLine
 10
6000.5187548297
 20
5199.3556998382
 30
0.0
 11
6000.5187548297
 21
5223.8557047854
 31
0.0
  0
LINE
  5
11E
330
1F
100
AcDbEntity
  8
0
  6
Continuous
 62
     7
100
AcDbLine
 10
5674.0187562602
 20
5372.7432049523
 30
0.0
 11
6874.0187443393
 21
5372.7432049523
 31
0.0
  0
LINE
  5
11F
330
1F
100
AcDbEntity
  8
0
  6
Continuous
 62
     7
100
AcDbLine
 10
6874.0187443393
 20
5272.7432109128
 30
0.0
 11
6874.0187443393
 21
5372.7432049523
 31
0.0
  0
LINE
  5
120
330
1F
100
AcDbEntity
  8
0
  6
Continuous
 62
     7
100
AcDbLine
 10
5674.0187562602
 20
5272.7432109128
 30
0.0
 11
6874.0187443393
 21
5272.7432109128
 31
0.0
  0
LINE
  5
121
330
1F
100
AcDbEntity
  8
0
  6
Continuous
 62
     7
100
AcDbLine
 10
5674.0187562602
 20
5272.7432109128
 30
0.0
 11
5674.0187562602
 21
5372.7432049523
 31
0.0
  0
LINE
  5
122
330
1F
100
AcDbEntity
  8
0
  6
Continuous
 62
     7
100
AcDbLine
 10
6874.0187443393
 20
5182.7432073365
 30
0.0
 11
6874.0187443393
 21
5272.7432109128
 31
0.0
  0
LINE
  5
123
330
1F
100
AcDbEntity
  8
0
  6
Continuous
 62
     7
100
AcDbLine
 10
6874.0187443393
 20
5182.7432073365
 30
0.0
 11
6872.8187836306
 21
5182.7432073365
 31
0.0
  0
LINE
  5
124
330
1F
100
AcDbEntity
  8
0
  6
Continuous
 62
     7
100
AcDbLine
 10
6872.8187836306
 20
5182.9592071186
 30
0.0
 11
6872.8187836306
 21
5272.5272036801
 31
0.0
  0
LINE
  5
125
330
1F
100
AcDbEntity
  8
0
  6
Continuous
 62
     7
100
AcDbLine
 10
5675.2187765735
 20
5272.5272036801
 30
0.0
 11
6872.8187836306
 21
5272.5272036801
 31
0.0
  0
LINE
  5
126
330
1F
100
AcDbEntity
  8
0
  6
Continuous
 62
     7
100
AcDbLine
 10
5675.2187765735
 20
5182.9592071186
 30
0.0
 11
5675.2187765735
 21
5272.5272036801
 31
0.0
  0
LINE
  5
127
330
1F
100
AcDbEntity
  8
0
  6
Continuous
 62
     7
100
AcDbLine
 10
5675.2187765735
 20
5182.7432073365
 30
0.0
 11
5674.0187562602
 21
5182.7432073365
 31
0.0
  0
LINE
  5
128
330
1F
100
AcDbEntity
  8
0
  6
Continuous
 62
     7
100
AcDbLine
 10
5674.0187562602
 20
5272.7432109128
 30
0.0
 11
5674.0187562602
 21
5182.7432073365
 31
0.0
  0
LINE
  5
129
330
1F
100
AcDbEntity
  8
0
  6
Continuous
 62
     7
100
AcDbLine
 10
5674.0187562602
 20
5374.7432090054
 30
0.0
 11
6874.0187443393
 21
5374.7432090054
 31
0.0
  0
LINE
  5
12A
330
1F
100
AcDbEntity
  8
0
  6
Continuous
 62
     7
100
AcDbLine
 10
6874.0187443393
 20
5374.7432090054
 30
0.0
 11
6874.0187443393
 21
5372.7432049523
 31
0.0
  0
LINE
  5
12B
330
1F
100
AcDbEntity
  8
0
  6
Continuous
 62
     7
100
AcDbLine
 10
5674.0187562602
 20
5372.7432049523
 30
0.0
 11
5674.0187562602
 21
5374.7432090054
 31
0.0
  0
LINE
  5
12C
330
1F
100
AcDbEntity
  8
0
  6
Continuous
 62
     7
100
AcDbLine
 10
5674.0187562602
 20
5412.7431966076
 30
0.0
 11
6874.0187443393
 21
5412.7431966076
 31
0.0
  0
LINE
  5
12D
330
1F
100
AcDbEntity
  8
0
  6
Continuous
 62
     7
100
AcDbLine
 10
6874.0187443393
 20
5412.7431966076
 30
0.0
 11
6874.0187443393
 21
5374.7432090054
 31
0.0
  0
LINE
  5
12E
330
1F
100
AcDbEntity
  8
0
  6
Continuous
 62
     7
100
AcDbLine
 10
5674.0187562602
 20
5412.7431966076
 30
0.0
 11
5674.0187562602
 21
5374.7432090054
 31
0.0
  0
LINE
  5
12F
330
1F
100
AcDbEntity
  8
0
  6
Continuous
 62
     7
100
AcDbLine
 10
5714.0187777179
 20
5272.5272036801
 30
0.0
 11
5714.0187777179
 21
5182.7432073365
 31
0.0
  0
LINE
  5
130
330
1F
100
AcDbEntity
  8
0
  6
Continuous
 62
     7
100
AcDbLine
 10
5714.0187777179
 20
5182.7432073365
 30
0.0
 11
5675.2187765735
 21
5182.7432073365
 31
0.0
  0
LINE
  5
131
330
1F
100
AcDbEntity
  8
0
  6
Continuous
 62
     7
100
AcDbLine
 10
6872.8187836306
 20
5182.7432073365
 30
0.0
 11
6872.8187836306
 21
5182.9592071186
 31
0.0
  0
LINE
  5
132
330
1F
100
AcDbEntity
  8
0
  6
Continuous
 62
     7
100
AcDbLine
 10
6834.0187526839
 20
5182.7432073365
 30
0.0
 11
6834.0187526839
 21
5272.5272036801
 31
0.0
  0
LINE
  5
133
330
1F
100
AcDbEntity
  8
0
  6
Continuous
 62
     7
100
AcDbLine
 10
6872.8187836306
 20
5182.7432073365
 30
0.0
 11
6834.0187526839
 21
5182.7432073365
 31
0.0
  0
LINE
  5
134
330
1F
100
AcDbEntity
  8
0
  6
Continuous
 62
     7
100
AcDbLine
 10
5675.2187765735
 20
5182.7432073365
 30
0.0
 11
5675.2187765735
 21
5182.9592071186
 31
0.0
  0
LINE
  5
135
330
1F
100
AcDbEntity
  8
0
  6
Continuous
 62
     7
100
AcDbLine
 10
6574.0187622207
 20
5192.3557042788
 30
0.0
 11
6602.0187593596
 21
5192.3557042788
 31
0.0
  0
LINE
  5
136
330
1F
100
AcDbEntity
  8
0
  6
Continuous
 62
     7
100
AcDbLine
 10
6546.0187501805
 20
5192.3557042788
 30
0.0
 11
6574.0187622207
 21
5192.3557042788
 31
0.0
  0
LINE
  5
137
330
1F
100
AcDbEntity
  8
0
  6
Continuous
 62
     7
100
AcDbLine
 10
6574.0187622207
 20
5196.3557012091
 30
0.0
 11
6604.0187485116
 21
5196.3557012091
 31
0.0
  0
LINE
  5
138
330
1F
100
AcDbEntity
  8
0
  6
Continuous
 62
     7
100
AcDbLine
 10
6544.0187610286
 20
5196.3557012091
 30
0.0
 11
6574.0187622207
 21
5196.3557012091
 31
0.0
  0
LINE
  5
139
330
1F
100
AcDbEntity
  8
0
  6
Continuous
 62
     7
100
AcDbLine
 10
6574.0187622207
 20
5182.3557026396
 30
0.0
 11
6599.01875328
 21
5182.3557026396
 31
0.0
  0
LINE
  5
13A
330
1F
100
AcDbEntity
  8
0
  6
Continuous
 62
     7
100
AcDbLine
 10
6549.0187562602
 20
5182.3557026396
 30
0.0
 11
6574.0187622207
 21
5182.3557026396
 31
0.0
  0
LINE
  5
13B
330
1F
100
AcDbEntity
  8
0
  6
Continuous
 62
     7
100
AcDbLine
 10
5974.0187681811
 20
5196.3557012091
 30
0.0
 11
6004.0187693732
 21
5196.3557012091
 31
0.0
  0
LINE
  5
13C
330
1F
100
AcDbEntity
  8
0
  6
Continuous
 62
     7
100
AcDbLine
 10
5944.018766989
 20
5196.3557012091
 30
0.0
 11
5974.0187681811
 21
5196.3557012091
 31
0.0
  0
LINE
  5
13D
330
1F
100
AcDbEntity
  8
0
  6
Continuous
 62
     7
100
AcDbLine
 10
5974.0187681811
 20
5192.3557042788
 30
0.0
 11
6002.0187653201
 21
5192.3557042788
 31
0.0
  0
LINE
  5
13E
330
1F
100
AcDbEntity
  8
0
  6
Continuous
 62
     7
100
AcDbLine
 10
5946.0187412398
 20
5192.3557042788
 30
0.0
 11
5974.0187681811
 21
5192.3557042788
 31
0.0
  0
LINE
  5
13F
330
1F
100
AcDbEntity
  8
0
  6
Continuous
 62
     7
100
AcDbLine
 10
5974.0187681811
 20
5182.3557026396
 30
0.0
 11
5999.0187443393
 21
5182.3557026396
 31
0.0
  0
LINE
  5
140
330
1F
100
AcDbEntity
  8
0
  6
Continuous
 62
     7
100
AcDbLine
 10
5949.0187622207
 20
5182.3557026396
 30
0.0
 11
5974.0187681811
 21
5182.3557026396
 31
0.0
  0
LINE
  5
141
330
1F
100
AcDbEntity
  8
0
  6
Continuous
 62
     7
100
AcDbLine
 10
6540.0187529223
 20
5084.6557028304
 30
0.0
 11
6608.0187566178
 21
5084.6557028304
 31
0.0
  0
LINE
  5
142
330
1F
100
AcDbEntity
  8
0
  6
Continuous
 62
     7
100
AcDbLine
 10
6549.6890998977
 20
5144.6557033519
 30
0.0
 11
6598.3484096425
 21
5144.6557033519
 31
0.0
  0
LINE
  5
143
330
1F
100
AcDbEntity
  8
0
  6
Continuous
 62
     7
100
AcDbLine
 10
6549.8969263928
 20
5014.6557025323
 30
0.0
 11
6598.1405831473
 21
5014.6557025323
 31
0.0
  0
LINE
  5
144
330
1F
100
AcDbEntity
  8
0
  6
Continuous
 62
     7
100
AcDbLine
 10
6551.0187603133
 20
5151.155703486
 30
0.0
 11
6597.0187492268
 21
5151.155703486
 31
0.0
  0
LINE
  5
145
330
1F
100
AcDbEntity
  8
0
  6
Continuous
 62
     7
100
AcDbLine
 10
6549.0187562602
 20
5147.1557037617
 30
0.0
 11
6599.01875328
 21
5147.1557037617
 31
0.0
  0
LINE
  5
146
330
1F
100
AcDbEntity
  8
0
  6
Continuous
 62
     7
100
AcDbLine
 10
6554.0187514918
 20
5161.1557032625
 30
0.0
 11
6594.0187580483
 21
5161.1557032625
 31
0.0
  0
LINE
  5
147
330
1F
100
AcDbEntity
  8
0
  6
Continuous
 62
     7
100
AcDbLine
 10
6590.518758406
 20
5144.6557033519
 30
0.0
 11
6590.0187499421
 21
5145.0219729627
 31
0.0
  0
LINE
  5
148
330
1F
100
AcDbEntity
  8
0
  6
Continuous
 62
     7
100
AcDbLine
 10
6558.0187595981
 20
5145.0219729627
 30
0.0
 11
6557.5187511342
 21
5144.6557033519
 31
0.0
  0
LINE
  5
149
330
1F
100
AcDbEntity
  8
0
  6
Continuous
 62
     7
100
AcDbLine
 10
5940.0187588828
 20
5084.6557028304
 30
0.0
 11
6008.0187476771
 21
5084.6557028304
 31
0.0
  0
LINE
  5
14A
330
1F
100
AcDbEntity
  8
0
  6
Continuous
 62
     7
100
AcDbLine
 10
5949.6891058581
 20
5144.6557033519
 30
0.0
 11
5998.3484007018
 21
5144.6557033519
 31
0.0
  0
LINE
  5
14B
330
1F
100
AcDbEntity
  8
0
  6
Continuous
 62
     7
100
AcDbLine
 10
5949.8969174521
 20
5014.6557025323
 30
0.0
 11
5998.1405891078
 21
5014.6557025323
 31
0.0
  0
LINE
  5
14C
330
1F
100
AcDbEntity
  8
0
  6
Continuous
 62
     7
100
AcDbLine
 10
5951.0187662738
 20
5151.155703486
 30
0.0
 11
5997.0187700885
 21
5151.155703486
 31
0.0
  0
LINE
  5
14D
330
1F
100
AcDbEntity
  8
0
  6
Continuous
 62
     7
100
AcDbLine
 10
5949.0187622207
 20
5147.1557037617
 30
0.0
 11
5999.0187443393
 21
5147.1557037617
 31
0.0
  0
LINE
  5
14E
330
1F
100
AcDbEntity
  8
0
  6
Continuous
 62
     7
100
AcDbLine
 10
5954.0187574523
 20
5161.1557032625
 30
0.0
 11
5994.0187491076
 21
5161.1557032625
 31
0.0
  0
LINE
  5
14F
330
1F
100
AcDbEntity
  8
0
  6
Continuous
 62
     7
100
AcDbLine
 10
5990.5187643664
 20
5144.6557033519
 30
0.0
 11
5990.0187410014
 21
5145.0219729627
 31
0.0
  0
LINE
  5
150
330
1F
100
AcDbEntity
  8
0
  6
Continuous
 62
     7
100
AcDbLine
 10
5958.0187655585
 20
5145.0219729627
 30
0.0
 11
5957.5187421935
 21
5144.6557033519
 31
0.0
  0
LINE
  5
151
330
1F
100
AcDbEntity
  8
0
  6
Continuous
 62
     7
100
AcDbLine
 10
6539.0187508958
 20
5236.355700315
 30
0.0
 11
6609.0187586444
 21
5236.355700315
 31
0.0
  0
LINE
  5
152
330
1F
100
AcDbEntity
  8
0
  6
Continuous
 62
     7
100
AcDbLine
 10
6542.0187569755
 20
5229.3557010303
 30
0.0
 11
6606.0187525647
 21
5229.3557010303
 31
0.0
  0
LINE
  5
153
330
1F
100
AcDbEntity
  8
0
  6
Continuous
 62
     7
100
AcDbLine
 10
6547.5187606709
 20
5223.8557047854
 30
0.0
 11
6600.5187488692
 21
5223.8557047854
 31
0.0
  0
LINE
  5
154
330
1F
100
AcDbEntity
  8
0
  6
Continuous
 62
     7
100
AcDbLine
 10
6544.5187545913
 20
5199.3556998382
 30
0.0
 11
6603.5187549489
 21
5199.3556998382
 31
0.0
  0
LINE
  5
155
330
1F
100
AcDbEntity
  8
0
  6
Continuous
 62
     7
100
AcDbLine
 10
5939.0187419551
 20
5236.355700315
 30
0.0
 11
6009.0187646048
 21
5236.355700315
 31
0.0
  0
LINE
  5
156
330
1F
100
AcDbEntity
  8
0
  6
Continuous
 62
     7
100
AcDbLine
 10
5942.0187629359
 20
5229.3557010303
 30
0.0
 11
6006.018743624
 21
5229.3557010303
 31
0.0
  0
LINE
  5
157
330
1F
100
AcDbEntity
  8
0
  6
Continuous
 62
     7
100
AcDbLine
 10
5947.5187517302
 20
5223.8557047854
 30
0.0
 11
6000.5187548297
 21
5223.8557047854
 31
0.0
  0
LINE
  5
158
330
1F
100
AcDbEntity
  8
0
  6
Continuous
 62
     7
100
AcDbLine
 10
5944.5187605517
 20
5199.3556998382
 30
0.0
 11
6003.5187460082
 21
5199.3556998382
 31
0.0
  0
LINE
  5
159
330
1F
100
AcDbEntity
  8
0
  6
Continuous
 62
     7
100
AcDbLine
 10
5974.0187681811
 20
5237.3570657979
 30
0.0
 11
6011.1135239635
 21
5237.357064114
 31
0.0
  0
LINE
  5
15A
330
1F
100
AcDbEntity
  8
0
  6
Continuous
 62
     7
100
AcDbLine
 10
5936.9239867087
 20
5237.357064114
 30
0.0
 11
5974.0187681811
 21
5237.3570657979
 31
0.0
  0
LINE
  5
15B
330
1F
100
AcDbEntity
  8
0
  6
Continuous
 62
     7
100
AcDbLine
 10
6574.0187622207
 20
5237.3570657979
 30
0.0
 11
6611.1135239635
 21
5237.357064114
 31
0.0
  0
LINE
  5
15C
330
1F
100
AcDbEntity
  8
0
  6
Continuous
 62
     7
100
AcDbLine
 10
6536.9239867087
 20
5237.357064114
 30
0.0
 11
6574.0187622207
 21
5237.3570657979
 31
0.0
  0
LINE
  5
15D
330
1F
100
AcDbEntity
  8
0
  6
Continuous
 62
     7
100
AcDbLine
 10
6574.0187622207
 20
5236.6942174445
 30
0.0
 11
6609.6015281575
 21
5236.6942174445
 31
0.0
  0
LINE
  5
15E
330
1F
100
AcDbEntity
  8
0
  6
Continuous
 62
     7
100
AcDbLine
 10
6538.4359813826
 20
5236.6942174445
 30
0.0
 11
6574.0187622207
 21
5236.6942174445
 31
0.0
  0
LINE
  5
15F
330
1F
100
AcDbEntity
  8
0
  6
Continuous
 62
     7
100
AcDbLine
 10
5974.0187681811
 20
5236.6942174445
 30
0.0
 11
6009.6015192168
 21
5236.6942174445
 31
0.0
  0
LINE
  5
160
330
1F
100
AcDbEntity
  8
0
  6
Continuous
 62
     7
100
AcDbLine
 10
5938.4359873431
 20
5236.6942174445
 30
0.0
 11
5974.0187681811
 21
5236.6942174445
 31
0.0
  0
LINE
  5
161
330
1F
100
AcDbEntity
  8
0
  6
Continuous
 62
     7
100
AcDbLine
 10
6574.0187622207
 20
5185.355704994
 30
0.0
 11
6602.0187593596
 21
5185.355704994
 31
0.0
  0
LINE
  5
162
330
1F
100
AcDbEntity
  8
0
  6
Continuous
 62
     7
100
AcDbLine
 10
6546.0187501805
 20
5185.355704994
 30
0.0
 11
6574.0187622207
 21
5185.355704994
 31
0.0
  0
LINE
  5
163
330
1F
100
AcDbEntity
  8
0
  6
Continuous
 62
     7
100
AcDbLine
 10
5974.0187681811
 20
5185.355704994
 30
0.0
 11
6002.0187653201
 21
5185.355704994
 31
0.0
  0
LINE
  5
164
330
1F
100
AcDbEntity
  8
0
  6
Continuous
 62
     7
100
AcDbLine
 10
5946.0187412398
 20
5185.355704994
 30
0.0
 11
5974.0187681811
 21
5185.355704994
 31
0.0
  0
LINE
  5
165
330
1F
100
AcDbEntity
  8
0
  6
Continuous
 62
     7
100
AcDbLine
 10
6601.3281948464
 20
5142.0033460195
 30
0.0
 11
6546.7093146937
 21
5142.0033460195
 31
0.0
  0
LINE
  5
166
330
1F
100
AcDbEntity
  8
0
  6
Continuous
 62
     7
100
AcDbLine
 10
6546.9125367301
 20
5017.3500261913
 30
0.0
 11
6601.1249728101
 21
5017.3500261913
 31
0.0
  0
LINE
  5
167
330
1F
100
AcDbEntity
  8
0
  6
Continuous
 62
     7
100
AcDbLine
 10
6551.0187603133
 20
5158.1557027708
 30
0.0
 11
6597.0187492268
 21
5158.1557027708
 31
0.0
  0
LINE
  5
168
330
1F
100
AcDbEntity
  8
0
  6
Continuous
 62
     7
100
AcDbLine
 10
6001.3281859057
 20
5142.0033460195
 30
0.0
 11
5946.7093206542
 21
5142.0033460195
 31
0.0
  0
LINE
  5
169
330
1F
100
AcDbEntity
  8
0
  6
Continuous
 62
     7
100
AcDbLine
 10
5946.9125426906
 20
5017.3500261913
 30
0.0
 11
6001.1249638694
 21
5017.3500261913
 31
0.0
  0
LINE
  5
16A
330
1F
100
AcDbEntity
  8
0
  6
Continuous
 62
     7
100
AcDbLine
 10
5951.0187662738
 20
5158.1557027708
 30
0.0
 11
5997.0187700885
 21
5158.1557027708
 31
0.0
  0
LINE
  5
16B
330
1F
100
AcDbEntity
  8
0
  6
Continuous
 62
     7
100
AcDbLine
 10
7578.1833308837
 20
5237.3570657979
 30
0.0
 11
7586.3817113539
 21
5240.2648634921
 31
0.0
  0
LINE
  5
16C
330
1F
100
AcDbEntity
  8
0
  6
Continuous
 62
     7
100
AcDbLine
 10
7586.3817113539
 20
5240.2648634921
 30
0.0
 11
7591.199912419
 21
5242.1632416258
 31
0.0
  0
LINE
  5
16D
330
1F
100
AcDbEntity
  8
0
  6
Continuous
 62
     7
100
AcDbLine
 10
7576.0620015761
 20
5236.355700315
 30
0.0
 11
7576.6713994643
 21
5236.6942174445
 31
0.0
  0
LINE
  5
16E
330
1F
100
AcDbEntity
  8
0
  6
Continuous
 62
     7
100
AcDbLine
 10
7511.0886472365
 20
5196.3557012091
 30
0.0
 11
7513.0886214873
 21
5192.3557042788
 31
0.0
  0
LINE
  5
16F
330
1F
100
AcDbEntity
  8
0
  6
Continuous
 62
     7
100
AcDbLine
 10
7569.0886157653
 20
5192.3557042788
 30
0.0
 11
7571.0885900161
 21
5196.3557012091
 31
0.0
  0
LINE
  5
170
330
1F
100
AcDbEntity
  8
0
  6
Continuous
 62
     7
100
AcDbLine
 10
7513.0886214873
 20
5192.3557042788
 30
0.0
 11
7513.0886214873
 21
5185.355704994
 31
0.0
  0
LINE
  5
171
330
1F
100
AcDbEntity
  8
0
  6
Continuous
 62
     7
100
AcDbLine
 10
7569.0886157653
 20
5185.355704994
 30
0.0
 11
7569.0886157653
 21
5192.3557042788
 31
0.0
  0
LINE
  5
172
330
1F
100
AcDbEntity
  8
0
  6
Continuous
 62
     7
100
AcDbLine
 10
7525.0885862014
 20
5182.3557026396
 30
0.0
 11
7525.0885862014
 21
5161.1557032625
 31
0.0
  0
LINE
  5
173
330
1F
100
AcDbEntity
  8
0
  6
Continuous
 62
     7
100
AcDbLine
 10
7525.0885862014
 20
5147.1557037617
 30
0.0
 11
7525.0885862014
 21
5144.6557033519
 31
0.0
  0
LINE
  5
174
330
1F
100
AcDbEntity
  8
0
  6
Continuous
 62
     7
100
AcDbLine
 10
7557.0886510512
 20
5144.6557033519
 30
0.0
 11
7557.0886510512
 21
5147.1557037617
 31
0.0
  0
LINE
  5
175
330
1F
100
AcDbEntity
  8
0
  6
Continuous
 62
     7
100
AcDbLine
 10
7557.0886510512
 20
5161.1557032625
 30
0.0
 11
7557.0886510512
 21
5182.3557026396
 31
0.0
  0
LINE
  5
176
330
1F
100
AcDbEntity
  8
0
  6
Continuous
 62
     7
100
AcDbLine
 10
7275.9940403601
 20
5162.655702577
 30
0.0
 11
7260.9940546653
 21
5162.655702577
 31
0.0
  0
LINE
  5
177
330
1F
100
AcDbEntity
  8
0
  6
Continuous
 62
     7
100
AcDbLine
 10
7260.9940546653
 20
5082.6557025025
 30
0.0
 11
7275.9940403601
 21
5082.6557025025
 31
0.0
  0
LINE
  5
178
330
1F
100
AcDbEntity
  8
0
  6
Continuous
 62
     7
100
AcDbLine
 10
7260.9940546653
 20
5142.6557039554
 30
0.0
 11
7250.9940045974
 21
5142.6557039554
 31
0.0
  0
LINE
  5
179
330
1F
100
AcDbEntity
  8
0
  6
Continuous
 62
     7
100
AcDbLine
 10
7250.9940045974
 20
5102.6557039181
 30
0.0
 11
7260.9940546653
 21
5102.6557039181
 31
0.0
  0
LINE
  5
17A
330
1F
100
AcDbEntity
  8
0
  6
Continuous
 62
     7
100
AcDbLine
 10
7481.0885566375
 20
5142.6557039554
 30
0.0
 11
7295.9940212867
 21
5142.6557039554
 31
0.0
  0
LINE
  5
17B
330
1F
100
AcDbEntity
  8
0
  6
Continuous
 62
     7
100
AcDbLine
 10
7295.9940212867
 20
5102.6557039181
 30
0.0
 11
7481.0885566375
 21
5102.6557039181
 31
0.0
  0
LINE
  5
17C
330
1F
100
AcDbEntity
  8
0
  6
Continuous
 62
     7
100
AcDbLine
 10
7575.0886577269
 20
5084.6557028304
 30
0.0
 11
7568.3980363509
 21
5142.0033460195
 31
0.0
  0
LINE
  5
17D
330
1F
100
AcDbEntity
  8
0
  6
Continuous
 62
     7
100
AcDbLine
 10
7508.9596885344
 20
5100.6937183152
 30
0.0
 11
7507.0885795256
 21
5084.6557028304
 31
0.0
  0
LINE
  5
17E
330
1F
100
AcDbEntity
  8
0
  6
Continuous
 62
     7
100
AcDbLine
 10
7507.0885795256
 20
5084.6557028304
 30
0.0
 11
7513.9823335311
 21
5017.3500261913
 31
0.0
  0
LINE
  5
17F
330
1F
100
AcDbEntity
  8
0
  6
Continuous
 62
     7
100
AcDbLine
 10
7568.1947845122
 20
5017.3500261913
 30
0.0
 11
7575.0886577269
 21
5084.6557028304
 31
0.0
  0
LINE
  5
180
330
1F
100
AcDbEntity
  8
0
  6
Continuous
 62
     7
100
AcDbLine
 10
7497.0885890624
 20
5150.1557033221
 30
0.0
 11
7493.0886405608
 21
5148.6557040076
 31
0.0
  0
LINE
  5
181
330
1F
100
AcDbEntity
  8
0
  6
Continuous
 62
     7
100
AcDbLine
 10
7493.0886405608
 20
5096.6557047973
 30
0.0
 11
7497.0885890624
 21
5095.1557017575
 31
0.0
  0
LINE
  5
182
330
1F
100
AcDbEntity
  8
0
  6
Continuous
 62
     7
100
AcDbLine
 10
7493.0886405608
 20
5148.6557040076
 30
0.0
 11
7484.0885776183
 21
5148.6557040076
 31
0.0
  0
LINE
  5
183
330
1F
100
AcDbEntity
  8
0
  6
Continuous
 62
     7
100
AcDbLine
 10
7484.0885776183
 20
5096.6557047973
 30
0.0
 11
7493.0886405608
 21
5096.6557047973
 31
0.0
  0
LINE
  5
184
330
1F
100
AcDbEntity
  8
0
  6
Continuous
 62
     7
100
AcDbLine
 10
7566.0885947844
 20
5147.1557037617
 30
0.0
 11
7564.0886205336
 21
5151.155703486
 31
0.0
  0
LINE
  5
185
330
1F
100
AcDbEntity
  8
0
  6
Continuous
 62
     7
100
AcDbLine
 10
7518.0886167189
 20
5151.155703486
 30
0.0
 11
7516.0886424681
 21
5147.1557037617
 31
0.0
  0
LINE
  5
186
330
1F
100
AcDbEntity
  8
0
  6
Continuous
 62
     7
100
AcDbLine
 10
7518.0886167189
 20
5158.1557027708
 30
0.0
 11
7518.0886167189
 21
5151.155703486
 31
0.0
  0
LINE
  5
187
330
1F
100
AcDbEntity
  8
0
  6
Continuous
 62
     7
100
AcDbLine
 10
7564.0886205336
 20
5151.155703486
 30
0.0
 11
7564.0886205336
 21
5158.1557027708
 31
0.0
  0
LINE
  5
188
330
1F
100
AcDbEntity
  8
0
  6
Continuous
 62
     7
100
AcDbLine
 10
7497.0885890624
 20
5100.6557017277
 30
0.0
 11
7508.9834111831
 21
5100.6557017277
 31
0.0
  0
LINE
  5
189
330
1F
100
AcDbEntity
  8
0
  6
Continuous
 62
     7
100
AcDbLine
 10
7514.0885490081
 20
5144.6557033519
 30
0.0
 11
7497.0885890624
 21
5144.6557033519
 31
0.0
  0
LINE
  5
18A
330
1F
100
AcDbEntity
  8
0
  6
Continuous
 62
     7
100
AcDbLine
 10
7525.0885862014
 20
5147.1557037617
 30
0.0
 11
7525.0885862014
 21
5144.6557033519
 31
0.0
  0
LINE
  5
18B
330
1F
100
AcDbEntity
  8
0
  6
Continuous
 62
     7
100
AcDbLine
 10
7557.0886510512
 20
5144.6557033519
 30
0.0
 11
7557.0886510512
 21
5147.1557037617
 31
0.0
  0
LINE
  5
18C
330
1F
100
AcDbEntity
  8
0
  6
Continuous
 62
     7
100
AcDbLine
 10
7573.0885642669
 20
5229.3557010303
 30
0.0
 11
7576.0885852477
 21
5236.355700315
 31
0.0
  0
LINE
  5
18D
330
1F
100
AcDbEntity
  8
0
  6
Continuous
 62
     7
100
AcDbLine
 10
7510.7602256438
 20
5227.6840962182
 30
0.0
 11
7513.5995525023
 21
5224.8447395573
 31
0.0
  0
LINE
  5
18E
330
1F
100
AcDbEntity
  8
0
  6
Continuous
 62
     7
100
AcDbLine
 10
7567.5886052748
 20
5223.8557047854
 30
0.0
 11
7573.0885642669
 21
5229.3557010303
 31
0.0
  0
LINE
  5
18F
330
1F
100
AcDbEntity
  8
0
  6
Continuous
 62
     7
100
AcDbLine
 10
7511.5886109969
 20
5199.3556998382
 30
0.0
 11
7511.5886109969
 21
5196.3557012091
 31
0.0
  0
LINE
  5
190
330
1F
100
AcDbEntity
  8
0
  6
Continuous
 62
     7
100
AcDbLine
 10
7570.5886262557
 20
5196.3557012091
 30
0.0
 11
7570.5886262557
 21
5199.3556998382
 31
0.0
  0
LINE
  5
191
330
1F
100
AcDbEntity
  8
0
  6
Continuous
 62
     7
100
AcDbLine
 10
7514.5886319777
 20
5199.8936690102
 30
0.0
 11
7514.5886319777
 21
5199.3556998382
 31
0.0
  0
LINE
  5
192
330
1F
100
AcDbEntity
  8
0
  6
Continuous
 62
     7
100
AcDbLine
 10
7567.5886052748
 20
5199.3556998382
 30
0.0
 11
7567.5886052748
 21
5223.8557047854
 31
0.0
  0
LINE
  5
193
330
1F
100
AcDbEntity
  8
0
  6
Continuous
 62
     7
100
AcDbLine
 10
7513.601459851
 20
5224.855706812
 30
0.0
 11
7495.0468915602
 21
5224.855706812
 31
0.0
  0
LINE
  5
194
330
1F
100
AcDbEntity
  8
0
  6
Continuous
 62
     7
100
AcDbLine
 10
7447.0886367461
 20
5199.8557008515
 30
0.0
 11
7514.6065133712
 21
5199.8557008515
 31
0.0
  0
LINE
  5
195
330
1F
100
AcDbEntity
  8
0
  6
Continuous
 62
     7
100
AcDbLine
 10
7261.0885876319
 20
5412.7431966076
 30
0.0
 11
7262.2886079451
 21
5412.7431966076
 31
0.0
  0
LINE
  5
196
330
1F
100
AcDbEntity
  8
0
  6
Continuous
 62
     7
100
AcDbLine
 10
7262.2886079451
 20
5412.7431966076
 30
0.0
 11
7262.2886079451
 21
5374.7432090054
 31
0.0
  0
LINE
  5
197
330
1F
100
AcDbEntity
  8
0
  6
Continuous
 62
     7
100
AcDbLine
 10
7264.2885821959
 20
5372.7432049523
 30
0.0
 11
7761.0886472365
 21
5372.7432049523
 31
0.0
  0
LINE
  5
198
330
1F
100
AcDbEntity
  8
0
  6
Continuous
 62
     7
100
AcDbLine
 10
7761.0886472365
 20
5272.7432109128
 30
0.0
 11
7761.0886472365
 21
5372.7432049523
 31
0.0
  0
LINE
  5
199
330
1F
100
AcDbEntity
  8
0
  6
Continuous
 62
     7
100
AcDbLine
 10
7761.0886472365
 20
5272.7432109128
 30
0.0
 11
7261.0885876319
 21
5182.7432073365
 31
0.0
  0
LINE
  5
19A
330
1F
100
AcDbEntity
  8
0
  6
Continuous
 62
     7
100
AcDbLine
 10
7261.0885876319
 20
5182.7432073365
 30
0.0
 11
7261.0885876319
 21
5412.7431966076
 31
0.0
  0
LINE
  5
19B
330
1F
100
AcDbEntity
  8
0
  6
Continuous
 62
     7
100
AcDbLine
 10
7262.2886079451
 20
5182.7432073365
 30
0.0
 11
7261.0885876319
 21
5182.7432073365
 31
0.0
  0
LINE
  5
19C
330
1F
100
AcDbEntity
  8
0
  6
Continuous
 62
     7
100
AcDbLine
 10
7262.2886079451
 20
5182.7432073365
 30
0.0
 11
7262.2886079451
 21
5182.9592071186
 31
0.0
  0
LINE
  5
19D
330
1F
100
AcDbEntity
  8
0
  6
Continuous
 62
     7
100
AcDbLine
 10
7513.0886214873
 20
5192.3557042788
 30
0.0
 11
7569.0886157653
 21
5192.3557042788
 31
0.0
  0
LINE
  5
19E
330
1F
100
AcDbEntity
  8
0
  6
Continuous
 62
     7
100
AcDbLine
 10
7511.0886472365
 20
5196.3557012091
 30
0.0
 11
7571.0885900161
 21
5196.3557012091
 31
0.0
  0
LINE
  5
19F
330
1F
100
AcDbEntity
  8
0
  6
Continuous
 62
     7
100
AcDbLine
 10
7516.0886424681
 20
5182.3557026396
 30
0.0
 11
7566.0885947844
 21
5182.3557026396
 31
0.0
  0
LINE
  5
1A0
330
1F
100
AcDbEntity
  8
0
  6
Continuous
 62
     7
100
AcDbLine
 10
7260.9940546653
 20
5162.655702577
 30
0.0
 11
7260.9940546653
 21
5082.6557025025
 31
0.0
  0
LINE
  5
1A1
330
1F
100
AcDbEntity
  8
0
  6
Continuous
 62
     7
100
AcDbLine
 10
7295.9940212867
 20
5142.6557039554
 30
0.0
 11
7295.9940212867
 21
5102.6557039181
 31
0.0
  0
LINE
  5
1A2
330
1F
100
AcDbEntity
  8
0
  6
Continuous
 62
     7
100
AcDbLine
 10
7250.9940045974
 20
5142.6557039554
 30
0.0
 11
7250.9940045974
 21
5102.6557039181
 31
0.0
  0
LINE
  5
1A3
330
1F
100
AcDbEntity
  8
0
  6
Continuous
 62
     7
100
AcDbLine
 10
7507.0885795256
 20
5084.6557028304
 30
0.0
 11
7575.0886577269
 21
5084.6557028304
 31
0.0
  0
LINE
  5
1A4
330
1F
100
AcDbEntity
  8
0
  6
Continuous
 62
     7
100
AcDbLine
 10
7497.0885890624
 20
5150.1557033221
 30
0.0
 11
7497.0885890624
 21
5095.1557017575
 31
0.0
  0
LINE
  5
1A5
330
1F
100
AcDbEntity
  8
0
  6
Continuous
 62
     7
100
AcDbLine
 10
7493.0886405608
 20
5148.6557040076
 30
0.0
 11
7493.0886405608
 21
5096.6557047973
 31
0.0
  0
LINE
  5
1A6
330
1F
100
AcDbEntity
  8
0
  6
Continuous
 62
     7
100
AcDbLine
 10
7518.6188596389
 20
5144.6557033519
 30
0.0
 11
7565.4182809493
 21
5144.6557033519
 31
0.0
  0
LINE
  5
1A7
330
1F
100
AcDbEntity
  8
0
  6
Continuous
 62
     7
100
AcDbLine
 10
7516.966738095
 20
5014.6557025323
 30
0.0
 11
7565.2103799483
 21
5014.6557025323
 31
0.0
  0
LINE
  5
1A8
330
1F
100
AcDbEntity
  8
0
  6
Continuous
 62
     7
100
AcDbLine
 10
7481.0885566375
 20
5145.6557035158
 30
0.0
 11
7481.0885566375
 21
5099.6557034264
 31
0.0
  0
LINE
  5
1A9
330
1F
100
AcDbEntity
  8
0
  6
Continuous
 62
     7
100
AcDbLine
 10
7518.0886167189
 20
5151.155703486
 30
0.0
 11
7564.0886205336
 21
5151.155703486
 31
0.0
  0
LINE
  5
1AA
330
1F
100
AcDbEntity
  8
0
  6
Continuous
 62
     7
100
AcDbLine
 10
7516.0886424681
 20
5147.1557037617
 30
0.0
 11
7566.0885947844
 21
5147.1557037617
 31
0.0
  0
LINE
  5
1AB
330
1F
100
AcDbEntity
  8
0
  6
Continuous
 62
     7
100
AcDbLine
 10
7521.0886376998
 20
5161.1557032625
 30
0.0
 11
7561.0885995528
 21
5161.1557032625
 31
0.0
  0
LINE
  5
1AC
330
1F
100
AcDbEntity
  8
0
  6
Continuous
 62
     7
100
AcDbLine
 10
7558.9357989928
 20
5236.355700315
 30
0.0
 11
7576.0885852477
 21
5236.355700315
 31
0.0
  0
LINE
  5
1AD
330
1F
100
AcDbEntity
  8
0
  6
Continuous
 62
     7
100
AcDbLine
 10
7541.0886186263
 20
5229.3557010303
 30
0.0
 11
7573.0885642669
 21
5229.3557010303
 31
0.0
  0
LINE
  5
1AE
330
1F
100
AcDbEntity
  8
0
  6
Continuous
 62
     7
100
AcDbLine
 10
7520.0468677184
 20
5229.3557010303
 30
0.0
 11
7541.0886186263
 21
5229.3557010303
 31
0.0
  0
LINE
  5
1AF
330
1F
100
AcDbEntity
  8
0
  6
Continuous
 62
     7
100
AcDbLine
 10
7515.045322766
 20
5223.8557047854
 30
0.0
 11
7567.5886052748
 21
5223.8557047854
 31
0.0
  0
LINE
  5
1B0
330
1F
100
AcDbEntity
  8
0
  6
Continuous
 62
     7
100
AcDbLine
 10
7541.0886186263
 20
5199.3556998382
 30
0.0
 11
7570.5886262557
 21
5199.3556998382
 31
0.0
  0
LINE
  5
1B1
330
1F
100
AcDbEntity
  8
0
  6
Continuous
 62
     7
100
AcDbLine
 10
7511.5886109969
 20
5199.3556998382
 30
0.0
 11
7541.0886186263
 21
5199.3556998382
 31
0.0
  0
LINE
  5
1B2
330
1F
100
AcDbEntity
  8
0
  6
Continuous
 62
     7
100
AcDbLine
 10
7517.0885699889
 20
5206.8784765611
 30
0.0
 11
7517.0885699889
 21
5217.8329311023
 31
0.0
  0
LINE
  5
1B3
330
1F
100
AcDbEntity
  8
0
  6
Continuous
 62
     7
100
AcDbLine
 10
7564.4989389083
 20
5237.3570657979
 30
0.0
 11
7578.1833308837
 21
5237.3570657979
 31
0.0
  0
LINE
  5
1B4
330
1F
100
AcDbEntity
  8
0
  6
Continuous
 62
     7
100
AcDbLine
 10
7560.8164447448
 20
5236.6942174445
 30
0.0
 11
7576.6713994643
 21
5236.6942174445
 31
0.0
  0
LINE
  5
1B5
330
1F
100
AcDbEntity
  8
0
  6
Continuous
 62
     7
100
AcDbLine
 10
7513.0886214873
 20
5185.355704994
 30
0.0
 11
7569.0886157653
 21
5185.355704994
 31
0.0
  0
LINE
  5
1B6
330
1F
100
AcDbEntity
  8
0
  6
Continuous
 62
     7
100
AcDbLine
 10
7275.9940403601
 20
5162.655702577
 30
0.0
 11
7275.9940403601
 21
5082.6557025025
 31
0.0
  0
LINE
  5
1B7
330
1F
100
AcDbEntity
  8
0
  6
Continuous
 62
     7
100
AcDbLine
 10
7568.3980363509
 20
5142.0033460195
 30
0.0
 11
7515.8667939803
 21
5142.0033460195
 31
0.0
  0
LINE
  5
1B8
330
1F
100
AcDbEntity
  8
0
  6
Continuous
 62
     7
100
AcDbLine
 10
7513.9823335311
 20
5017.3500261913
 30
0.0
 11
7568.1947845122
 21
5017.3500261913
 31
0.0
  0
LINE
  5
1B9
330
1F
100
AcDbEntity
  8
0
  6
Continuous
 62
     7
100
AcDbLine
 10
7484.0885776183
 20
5148.6557040076
 30
0.0
 11
7484.0885776183
 21
5096.6557047973
 31
0.0
  0
LINE
  5
1BA
330
1F
100
AcDbEntity
  8
0
  6
Continuous
 62
     7
100
AcDbLine
 10
7518.0886167189
 20
5158.1557027708
 30
0.0
 11
7564.0886205336
 21
5158.1557027708
 31
0.0
  0
LINE
  5
1BB
330
1F
100
AcDbEntity
  8
0
  6
Continuous
 62
     7
100
AcDbLine
 10
7447.0886367461
 20
5199.8557008515
 30
0.0
 11
7447.0886367461
 21
5216.223203362
 31
0.0
  0
LINE
  5
1BC
330
1F
100
AcDbEntity
  8
0
  6
Continuous
 62
     7
100
AcDbLine
 10
5674.0187553361
 20
4624.8864792302
 30
0.0
 11
6874.0187553361
 21
4624.8864792302
 31
0.0
  0
LINE
  5
1BD
330
1F
100
AcDbEntity
  8
0
  6
Continuous
 62
     7
100
AcDbLine
 10
5674.0187553361
 20
4624.8864792302
 30
0.0
 11
5674.0187553361
 21
4124.8864792302
 31
0.0
  0
LINE
  5
1BE
330
1F
100
AcDbEntity
  8
0
  6
Continuous
 62
     7
100
AcDbLine
 10
5674.0187553361
 20
4124.8864792302
 30
0.0
 11
6874.0187553361
 21
4124.8864792302
 31
0.0
  0
LINE
  5
1BF
330
1F
100
AcDbEntity
  8
0
  6
Continuous
 62
     7
100
AcDbLine
 10
6874.0187553361
 20
4624.8864792302
 30
0.0
 11
6874.0187553361
 21
4124.8864792302
 31
0.0
  0
LINE
  5
1C0
330
1F
100
AcDbEntity
  8
0
  6
Continuous
 62
     7
100
AcDbLine
 10
5968.2468033927
 20
4506.9789074376
 30
0.0
 11
5968.7750793593
 21
4507.053174825
 31
0.0
  0
LINE
  5
1C1
330
1F
100
AcDbEntity
  8
0
  6
Continuous
 62
     7
100
AcDbLine
 10
5977.9732383387
 20
4507.197298856
 30
0.0
 11
5978.2761491435
 21
4507.1642778828
 31
0.0
  0
LINE
  5
1C2
330
1F
100
AcDbEntity
  8
0
  6
Continuous
 62
     7
100
AcDbLine
 10
6568.2467974322
 20
4506.9789074376
 30
0.0
 11
6568.7750733989
 21
4507.053174825
 31
0.0
  0
LINE
  5
1C3
330
1F
100
AcDbEntity
  8
0
  6
Continuous
 62
     7
100
AcDbLine
 10
6577.9732472794
 20
4507.197298856
 30
0.0
 11
6578.276143183
 21
4507.1642778828
 31
0.0
  0
LINE
  5
1C4
330
1F
100
AcDbEntity
  8
0
  6
Continuous
 62
     7
100
AcDbLine
 10
5979.2687452929
 20
4497.839250417
 30
0.0
 11
5979.2687452929
 21
4498.469986768
 31
0.0
  0
LINE
  5
1C5
330
1F
100
AcDbEntity
  8
0
  6
Continuous
 62
     7
100
AcDbLine
 10
5968.768761267
 20
4498.469986768
 30
0.0
 11
5968.768761267
 21
4497.839250417
 31
0.0
  0
LINE
  5
1C6
330
1F
100
AcDbEntity
  8
0
  6
Continuous
 62
     7
100
AcDbLine
 10
6579.2687542336
 20
4497.839250417
 30
0.0
 11
6579.2687542336
 21
4498.469986768
 31
0.0
  0
LINE
  5
1C7
330
1F
100
AcDbEntity
  8
0
  6
Continuous
 62
     7
100
AcDbLine
 10
6568.7687553065
 20
4498.469986768
 30
0.0
 11
6568.7687553065
 21
4497.839250417
 31
0.0
  0
LINE
  5
1C8
330
1F
100
AcDbEntity
  8
0
  6
Continuous
 62
     7
100
AcDbLine
 10
6614.018753876
 20
4624.8864911511
 30
0.0
 11
6614.018753876
 21
4624.9810241177
 31
0.0
  0
LINE
  5
1C9
330
1F
100
AcDbEntity
  8
0
  6
Continuous
 62
     7
100
AcDbLine
 10
6534.0187556641
 20
4624.9810241177
 30
0.0
 11
6534.0187556641
 21
4624.8864911511
 31
0.0
  0
LINE
  5
1CA
330
1F
100
AcDbEntity
  8
0
  6
Continuous
 62
     7
100
AcDbLine
 10
6594.0187580483
 20
4624.9810241177
 30
0.0
 11
6594.0187580483
 21
4634.9810741856
 31
0.0
  0
LINE
  5
1CB
330
1F
100
AcDbEntity
  8
0
  6
Continuous
 62
     7
100
AcDbLine
 10
6554.0187514918
 20
4634.9810741856
 30
0.0
 11
6554.0187514918
 21
4624.9810241177
 31
0.0
  0
LINE
  5
1CC
330
1F
100
AcDbEntity
  8
0
  6
Continuous
 62
     7
100
AcDbLine
 10
6014.0187598365
 20
4624.8864911511
 30
0.0
 11
6014.0187598365
 21
4624.9810241177
 31
0.0
  0
LINE
  5
1CD
330
1F
100
AcDbEntity
  8
0
  6
Continuous
 62
     7
100
AcDbLine
 10
5934.0187467235
 20
4624.9810241177
 30
0.0
 11
5934.0187467235
 21
4624.8864911511
 31
0.0
  0
LINE
  5
1CE
330
1F
100
AcDbEntity
  8
0
  6
Continuous
 62
     7
100
AcDbLine
 10
5994.0187491076
 20
4624.9810241177
 30
0.0
 11
5994.0187491076
 21
4634.9810741856
 31
0.0
  0
LINE
  5
1CF
330
1F
100
AcDbEntity
  8
0
  6
Continuous
 62
     7
100
AcDbLine
 10
5954.0187574523
 20
4634.9810741856
 30
0.0
 11
5954.0187574523
 21
4624.9810241177
 31
0.0
  0
LINE
  5
1D0
330
1F
100
AcDbEntity
  8
0
  6
Continuous
 62
     7
100
AcDbLine
 10
6874.0187443393
 20
4624.8864911511
 30
0.0
 11
5674.0187562602
 21
4624.8864911511
 31
0.0
  0
LINE
  5
1D1
330
1F
100
AcDbEntity
  8
0
  6
Continuous
 62
     7
100
AcDbLine
 10
6874.0187443393
 20
4623.6864708378
 30
0.0
 11
6874.0187443393
 21
4624.8864911511
 31
0.0
  0
LINE
  5
1D2
330
1F
100
AcDbEntity
  8
0
  6
Continuous
 62
     7
100
AcDbLine
 10
5674.0187562602
 20
4623.6864708378
 30
0.0
 11
6874.0187443393
 21
4623.6864708378
 31
0.0
  0
LINE
  5
1D3
330
1F
100
AcDbEntity
  8
0
  6
Continuous
 62
     7
100
AcDbLine
 10
5674.0187562602
 20
4624.8864911511
 30
0.0
 11
5674.0187562602
 21
4623.6864708378
 31
0.0
  0
LINE
  5
1D4
330
1F
100
AcDbEntity
  8
0
  6
Continuous
 62
     7
100
AcDbLine
 10
6874.0187443393
 20
4621.6864965871
 30
0.0
 11
5674.0187562602
 21
4621.6864965871
 31
0.0
  0
LINE
  5
1D5
330
1F
100
AcDbEntity
  8
0
  6
Continuous
 62
     7
100
AcDbLine
 10
6874.0187443393
 20
4623.6864708378
 30
0.0
 11
6874.0187443393
 21
4621.6864965871
 31
0.0
  0
LINE
  5
1D6
330
1F
100
AcDbEntity
  8
0
  6
Continuous
 62
     7
100
AcDbLine
 10
5674.0187562602
 20
4621.6864965871
 30
0.0
 11
5674.0187562602
 21
4623.6864708378
 31
0.0
  0
LINE
  5
1D7
330
1F
100
AcDbEntity
  8
0
  6
Continuous
 62
     7
100
AcDbLine
 10
5674.0187562602
 20
4124.8864315465
 30
0.0
 11
6874.0187443393
 21
4124.8864315465
 31
0.0
  0
LINE
  5
1D8
330
1F
100
AcDbEntity
  8
0
  6
Continuous
 62
     7
100
AcDbLine
 10
6874.0187443393
 20
4124.8864315465
 30
0.0
 11
6874.0187443393
 21
4621.6864965871
 31
0.0
  0
LINE
  5
1D9
330
1F
100
AcDbEntity
  8
0
  6
Continuous
 62
     7
100
AcDbLine
 10
5674.0187562602
 20
4621.6864965871
 30
0.0
 11
5674.0187562602
 21
4124.8864315465
 31
0.0
  0
LINE
  5
1DA
330
1F
100
AcDbEntity
  8
0
  6
Continuous
 62
     7
100
AcDbLine
 10
6574.0187622207
 20
4491.6080616429
 30
0.0
 11
6576.4211721318
 21
4491.6812561467
 31
0.0
  0
LINE
  5
1DB
330
1F
100
AcDbEntity
  8
0
  6
Continuous
 62
     7
100
AcDbLine
 10
6576.4211721318
 20
4491.6812561467
 30
0.0
 11
6578.7723965543
 21
4491.8990515187
 31
0.0
  0
LINE
  5
1DC
330
1F
100
AcDbEntity
  8
0
  6
Continuous
 62
     7
100
AcDbLine
 10
6578.7723965543
 20
4491.8990515187
 30
0.0
 11
6581.0222930806
 21
4492.2569178059
 31
0.0
  0
LINE
  5
1DD
330
1F
100
AcDbEntity
  8
0
  6
Continuous
 62
     7
100
AcDbLine
 10
6581.0222930806
 20
4492.2569178059
 30
0.0
 11
6583.1229246753
 21
4492.7472256138
 31
0.0
  0
LINE
  5
1DE
330
1F
100
AcDbEntity
  8
0
  6
Continuous
 62
     7
100
AcDbLine
 10
6583.1229246753
 20
4492.7472256138
 30
0.0
 11
6585.0295133489
 21
4493.359484525
 31
0.0
  0
LINE
  5
1DF
330
1F
100
AcDbEntity
  8
0
  6
Continuous
 62
     7
100
AcDbLine
 10
6585.0295133489
 20
4493.359484525
 30
0.0
 11
6586.701438536
 21
4494.0805815175
 31
0.0
  0
LINE
  5
1E0
330
1F
100
AcDbEntity
  8
0
  6
Continuous
 62
     7
100
AcDbLine
 10
6586.701438536
 20
4494.0805815175
 30
0.0
 11
6588.1030417579
 21
4494.8953770116
 31
0.0
  0
LINE
  5
1E1
330
1F
100
AcDbEntity
  8
0
  6
Continuous
 62
     7
100
AcDbLine
 10
6588.1030417579
 20
4494.8953770116
 30
0.0
 11
6589.2044610875
 21
4495.7862280324
 31
0.0
  0
LINE
  5
1E2
330
1F
100
AcDbEntity
  8
0
  6
Continuous
 62
     7
100
AcDbLine
 10
6589.2044610875
 20
4495.7862280324
 30
0.0
 11
6589.9822420972
 21
4496.7344187215
 31
0.0
  0
LINE
  5
1E3
330
1F
100
AcDbEntity
  8
0
  6
Continuous
 62
     7
100
AcDbLine
 10
6589.9822420972
 20
4496.7344187215
 30
0.0
 11
6590.4197699922
 21
4497.719445081
 31
0.0
  0
LINE
  5
1E4
330
1F
100
AcDbEntity
  8
0
  6
Continuous
 62
     7
100
AcDbLine
 10
6590.4197699922
 20
4497.719445081
 30
0.0
 11
6590.5077464478
 21
4498.7205646947
 31
0.0
  0
LINE
  5
1E5
330
1F
100
AcDbEntity
  8
0
  6
Continuous
 62
     7
100
AcDbLine
 10
6590.5077464478
 20
4498.7205646947
 30
0.0
 11
6590.2442939179
 21
4499.7163198903
 31
0.0
  0
LINE
  5
1E6
330
1F
100
AcDbEntity
  8
0
  6
Continuous
 62
     7
100
AcDbLine
 10
6590.2442939179
 20
4499.7163198903
 30
0.0
 11
6589.635015239
 21
4500.6854914143
 31
0.0
  0
LINE
  5
1E7
330
1F
100
AcDbEntity
  8
0
  6
Continuous
 62
     7
100
AcDbLine
 10
6589.635015239
 20
4500.6854914143
 30
0.0
 11
6588.6929042237
 21
4501.6074560597
 31
0.0
  0
LINE
  5
1E8
330
1F
100
AcDbEntity
  8
0
  6
Continuous
 62
     7
100
AcDbLine
 10
6588.6929042237
 20
4501.6074560597
 30
0.0
 11
6587.4380327361
 21
4502.4625442937
 31
0.0
  0
LINE
  5
1E9
330
1F
100
AcDbEntity
  8
0
  6
Continuous
 62
     7
100
AcDbLine
 10
6587.4380327361
 20
4502.4625442937
 30
0.0
 11
6585.8971632617
 21
4503.2326363042
 31
0.0
  0
LINE
  5
1EA
330
1F
100
AcDbEntity
  8
0
  6
Continuous
 62
     7
100
AcDbLine
 10
6585.8971632617
 20
4503.2326363042
 30
0.0
 11
6584.1031230586
 21
4503.9010427907
 31
0.0
  0
LINE
  5
1EB
330
1F
100
AcDbEntity
  8
0
  6
Continuous
 62
     7
100
AcDbLine
 10
6584.1031230586
 20
4503.9010427907
 30
0.0
 11
6582.0941485064
 21
4504.4538162663
 31
0.0
  0
LINE
  5
1EC
330
1F
100
AcDbEntity
  8
0
  6
Continuous
 62
     7
100
AcDbLine
 10
6582.0941485064
 20
4504.4538162663
 30
0.0
 11
6579.9130655425
 21
4504.8790358021
 31
0.0
  0
LINE
  5
1ED
330
1F
100
AcDbEntity
  8
0
  6
Continuous
 62
     7
100
AcDbLine
 10
6579.9130655425
 20
4504.8790358021
 30
0.0
 11
6577.6063508885
 21
4505.1676414921
 31
0.0
  0
LINE
  5
1EE
330
1F
100
AcDbEntity
  8
0
  6
Continuous
 62
     7
100
AcDbLine
 10
6577.6063508885
 20
4505.1676414921
 30
0.0
 11
6575.2231783765
 21
4505.3134344533
 31
0.0
  0
LINE
  5
1EF
330
1F
100
AcDbEntity
  8
0
  6
Continuous
 62
     7
100
AcDbLine
 10
6575.2231783765
 20
4505.3134344533
 30
0.0
 11
6572.8143311637
 21
4505.3134344533
 31
0.0
  0
LINE
  5
1F0
330
1F
100
AcDbEntity
  8
0
  6
Continuous
 62
     7
100
AcDbLine
 10
6572.8143311637
 20
4505.3134344533
 30
0.0
 11
6570.4311586516
 21
4505.1676414921
 31
0.0
  0
LINE
  5
1F1
330
1F
100
AcDbEntity
  8
0
  6
Continuous
 62
     7
100
AcDbLine
 10
6570.4311586516
 20
4505.1676414921
 30
0.0
 11
6568.1244439977
 21
4504.8790358021
 31
0.0
  0
LINE
  5
1F2
330
1F
100
AcDbEntity
  8
0
  6
Continuous
 62
     7
100
AcDbLine
 10
6568.1244439977
 20
4504.8790358021
 30
0.0
 11
6565.9433610337
 21
4504.4538162663
 31
0.0
  0
LINE
  5
1F3
330
1F
100
AcDbEntity
  8
0
  6
Continuous
 62
     7
100
AcDbLine
 10
6565.9433610337
 20
4504.4538162663
 30
0.0
 11
6563.9343864816
 21
4503.9010427907
 31
0.0
  0
LINE
  5
1F4
330
1F
100
AcDbEntity
  8
0
  6
Continuous
 62
     7
100
AcDbLine
 10
6563.9343864816
 20
4503.9010427907
 30
0.0
 11
6562.1403462785
 21
4503.2326363042
 31
0.0
  0
LINE
  5
1F5
330
1F
100
AcDbEntity
  8
0
  6
Continuous
 62
     7
100
AcDbLine
 10
6562.1403462785
 20
4503.2326363042
 30
0.0
 11
6560.5994768041
 21
4502.4625442937
 31
0.0
  0
LINE
  5
1F6
330
1F
100
AcDbEntity
  8
0
  6
Continuous
 62
     7
100
AcDbLine
 10
6560.5994768041
 20
4502.4625442937
 30
0.0
 11
6559.3446053164
 21
4501.6074560597
 31
0.0
  0
LINE
  5
1F7
330
1F
100
AcDbEntity
  8
0
  6
Continuous
 62
     7
100
AcDbLine
 10
6559.3446053164
 20
4501.6074560597
 30
0.0
 11
6558.4024943011
 21
4500.6854914143
 31
0.0
  0
LINE
  5
1F8
330
1F
100
AcDbEntity
  8
0
  6
Continuous
 62
     7
100
AcDbLine
 10
6558.4024943011
 20
4500.6854914143
 30
0.0
 11
6557.7932156222
 21
4499.7163198903
 31
0.0
  0
LINE
  5
1F9
330
1F
100
AcDbEntity
  8
0
  6
Continuous
 62
     7
100
AcDbLine
 10
6557.7932156222
 20
4499.7163198903
 30
0.0
 11
6557.5297630923
 21
4498.7205646947
 31
0.0
  0
LINE
  5
1FA
330
1F
100
AcDbEntity
  8
0
  6
Continuous
 62
     7
100
AcDbLine
 10
6557.5297630923
 20
4498.7205646947
 30
0.0
 11
6557.617739548
 21
4497.719445081
 31
0.0
  0
LINE
  5
1FB
330
1F
100
AcDbEntity
  8
0
  6
Continuous
 62
     7
100
AcDbLine
 10
6557.617739548
 20
4497.719445081
 30
0.0
 11
6558.055267443
 21
4496.7344187215
 31
0.0
  0
LINE
  5
1FC
330
1F
100
AcDbEntity
  8
0
  6
Continuous
 62
     7
100
AcDbLine
 10
6558.055267443
 20
4496.7344187215
 30
0.0
 11
6558.8330484527
 21
4495.7862280324
 31
0.0
  0
LINE
  5
1FD
330
1F
100
AcDbEntity
  8
0
  6
Continuous
 62
     7
100
AcDbLine
 10
6558.8330484527
 20
4495.7862280324
 30
0.0
 11
6559.9344677823
 21
4494.8953770116
 31
0.0
  0
LINE
  5
1FE
330
1F
100
AcDbEntity
  8
0
  6
Continuous
 62
     7
100
AcDbLine
 10
6559.9344677823
 20
4494.8953770116
 30
0.0
 11
6561.3360710042
 21
4494.0805815175
 31
0.0
  0
LINE
  5
1FF
330
1F
100
AcDbEntity
  8
0
  6
Continuous
 62
     7
100
AcDbLine
 10
6561.3360710042
 20
4494.0805815175
 30
0.0
 11
6563.0079961913
 21
4493.359484525
 31
0.0
  0
LINE
  5
200
330
1F
100
AcDbEntity
  8
0
  6
Continuous
 62
     7
100
AcDbLine
 10
6563.0079961913
 20
4493.359484525
 30
0.0
 11
6564.9145848649
 21
4492.7472256138
 31
0.0
  0
LINE
  5
201
330
1F
100
AcDbEntity
  8
0
  6
Continuous
 62
     7
100
AcDbLine
 10
6564.9145848649
 20
4492.7472256138
 30
0.0
 11
6567.0152164596
 21
4492.2569178059
 31
0.0
  0
LINE
  5
202
330
1F
100
AcDbEntity
  8
0
  6
Continuous
 62
     7
100
AcDbLine
 10
6567.0152164596
 20
4492.2569178059
 30
0.0
 11
6569.2651129859
 21
4491.8990515187
 31
0.0
  0
LINE
  5
203
330
1F
100
AcDbEntity
  8
0
  6
Continuous
 62
     7
100
AcDbLine
 10
6569.2651129859
 20
4491.8990515187
 30
0.0
 11
6571.6163374083
 21
4491.6812561467
 31
0.0
  0
LINE
  5
204
330
1F
100
AcDbEntity
  8
0
  6
Continuous
 62
     7
100
AcDbLine
 10
6571.6163374083
 20
4491.6812561467
 30
0.0
 11
6574.0187622207
 21
4491.6080616429
 31
0.0
  0
LINE
  5
205
330
1F
100
AcDbEntity
  8
0
  6
Continuous
 62
     7
100
AcDbLine
 10
6592.0176960128
 20
4499.915041776
 30
0.0
 11
6591.9201530116
 21
4500.616588445
 31
0.0
  0
LINE
  5
206
330
1F
100
AcDbEntity
  8
0
  6
Continuous
 62
     7
100
AcDbLine
 10
6591.9201530116
 20
4500.616588445
 30
0.0
 11
6591.4840854304
 21
4501.6450069859
 31
0.0
  0
LINE
  5
207
330
1F
100
AcDbEntity
  8
0
  6
Continuous
 62
     7
100
AcDbLine
 10
6591.4840854304
 20
4501.6450069859
 30
0.0
 11
6590.7080627578
 21
4502.6382587865
 31
0.0
  0
LINE
  5
208
330
1F
100
AcDbEntity
  8
0
  6
Continuous
 62
     7
100
AcDbLine
 10
6590.7080627578
 20
4502.6382587865
 30
0.0
 11
6589.6072096723
 21
4503.5769127324
 31
0.0
  0
LINE
  5
209
330
1F
100
AcDbEntity
  8
0
  6
Continuous
 62
     7
100
AcDbLine
 10
6589.6072096723
 20
4503.5769127324
 30
0.0
 11
6588.2029540437
 21
4504.4427298024
 31
0.0
  0
LINE
  5
20A
330
1F
100
AcDbEntity
  8
0
  6
Continuous
 62
     7
100
AcDbLine
 10
6588.2029540437
 20
4504.4427298024
 30
0.0
 11
6586.5226097005
 21
4505.2187822774
 31
0.0
  0
LINE
  5
20B
330
1F
100
AcDbEntity
  8
0
  6
Continuous
 62
     7
100
AcDbLine
 10
6586.5226097005
 20
4505.2187822774
 30
0.0
 11
6584.5988846915
 21
4505.8900497868
 31
0.0
  0
LINE
  5
20C
330
1F
100
AcDbEntity
  8
0
  6
Continuous
 62
     7
100
AcDbLine
 10
6584.5988846915
 20
4505.8900497868
 30
0.0
 11
6582.469240536
 21
4506.4435385182
 31
0.0
  0
LINE
  5
20D
330
1F
100
AcDbEntity
  8
0
  6
Continuous
 62
     7
100
AcDbLine
 10
6582.469240536
 20
4506.4435385182
 30
0.0
 11
6580.1751173633
 21
4506.8682812169
 31
0.0
  0
LINE
  5
20E
330
1F
100
AcDbEntity
  8
0
  6
Continuous
 62
     7
100
AcDbLine
 10
6580.1751173633
 20
4506.8682812169
 30
0.0
 11
6577.7611590522
 21
4507.1561716511
 31
0.0
  0
LINE
  5
20F
330
1F
100
AcDbEntity
  8
0
  6
Continuous
 62
     7
100
AcDbLine
 10
6577.7611590522
 20
4507.1561716511
 30
0.0
 11
6575.2743787663
 21
4507.3014877751
 31
0.0
  0
LINE
  5
210
330
1F
100
AcDbEntity
  8
0
  6
Continuous
 62
     7
100
AcDbLine
 10
6575.2743787663
 20
4507.3014877751
 30
0.0
 11
6572.763145675
 21
4507.3014877751
 31
0.0
  0
LINE
  5
211
330
1F
100
AcDbEntity
  8
0
  6
Continuous
 62
     7
100
AcDbLine
 10
6572.763145675
 20
4507.3014877751
 30
0.0
 11
6570.276350488
 21
4507.1561716511
 31
0.0
  0
LINE
  5
212
330
1F
100
AcDbEntity
  8
0
  6
Continuous
 62
     7
100
AcDbLine
 10
6570.276350488
 20
4507.1561716511
 30
0.0
 11
6567.8623921769
 21
4506.8682812169
 31
0.0
  0
LINE
  5
213
330
1F
100
AcDbEntity
  8
0
  6
Continuous
 62
     7
100
AcDbLine
 10
6567.8623921769
 20
4506.8682812169
 30
0.0
 11
6565.5682690041
 21
4506.4435385182
 31
0.0
  0
LINE
  5
214
330
1F
100
AcDbEntity
  8
0
  6
Continuous
 62
     7
100
AcDbLine
 10
6565.5682690041
 20
4506.4435385182
 30
0.0
 11
6563.4386248486
 21
4505.8900497868
 31
0.0
  0
LINE
  5
215
330
1F
100
AcDbEntity
  8
0
  6
Continuous
 62
     7
100
AcDbLine
 10
6563.4386248486
 20
4505.8900497868
 30
0.0
 11
6561.5148998397
 21
4505.2187822774
 31
0.0
  0
LINE
  5
216
330
1F
100
AcDbEntity
  8
0
  6
Continuous
 62
     7
100
AcDbLine
 10
6561.5148998397
 20
4505.2187822774
 30
0.0
 11
6559.8345554965
 21
4504.4427298024
 31
0.0
  0
LINE
  5
217
330
1F
100
AcDbEntity
  8
0
  6
Continuous
 62
     7
100
AcDbLine
 10
6559.8345554965
 20
4504.4427298024
 30
0.0
 11
6558.4302998679
 21
4503.5769127324
 31
0.0
  0
LINE
  5
218
330
1F
100
AcDbEntity
  8
0
  6
Continuous
 62
     7
100
AcDbLine
 10
6558.4302998679
 20
4503.5769127324
 30
0.0
 11
6557.3294467824
 21
4502.6382587865
 31
0.0
  0
LINE
  5
219
330
1F
100
AcDbEntity
  8
0
  6
Continuous
 62
     7
100
AcDbLine
 10
6557.3294467824
 20
4502.6382587865
 30
0.0
 11
6556.5534390109
 21
4501.6450069859
 31
0.0
  0
LINE
  5
21A
330
1F
100
AcDbEntity
  8
0
  6
Continuous
 62
     7
100
AcDbLine
 10
6556.5534390109
 20
4501.6450069859
 30
0.0
 11
6556.1173565286
 21
4500.616588445
 31
0.0
  0
LINE
  5
21B
330
1F
100
AcDbEntity
  8
0
  6
Continuous
 62
     7
100
AcDbLine
 10
6556.1173565286
 20
4500.616588445
 30
0.0
 11
6556.0191727775
 21
4499.7830770924
 31
0.0
  0
LINE
  5
21C
330
1F
100
AcDbEntity
  8
0
  6
Continuous
 62
     7
100
AcDbLine
 10
6585.9811164039
 20
4499.9781034901
 30
0.0
 11
6585.1940519708
 21
4500.7988594487
 31
0.0
  0
LINE
  5
21D
330
1F
100
AcDbEntity
  8
0
  6
Continuous
 62
     7
100
AcDbLine
 10
6585.1940519708
 20
4500.7988594487
 30
0.0
 11
6584.0840793746
 21
4501.5523813679
 31
0.0
  0
LINE
  5
21E
330
1F
100
AcDbEntity
  8
0
  6
Continuous
 62
     7
100
AcDbLine
 10
6584.0840793746
 20
4501.5523813679
 30
0.0
 11
6582.6832510131
 21
4502.2168539479
 31
0.0
  0
LINE
  5
21F
330
1F
100
AcDbEntity
  8
0
  6
Continuous
 62
     7
100
AcDbLine
 10
6582.6832510131
 20
4502.2168539479
 30
0.0
 11
6581.0320682423
 21
4502.7729652836
 31
0.0
  0
LINE
  5
220
330
1F
100
AcDbEntity
  8
0
  6
Continuous
 62
     7
100
AcDbLine
 10
6581.0320682423
 20
4502.7729652836
 30
0.0
 11
6579.1782296794
 21
4503.2048605397
 31
0.0
  0
LINE
  5
221
330
1F
100
AcDbEntity
  8
0
  6
Continuous
 62
     7
100
AcDbLine
 10
6579.1782296794
 20
4503.2048605397
 30
0.0
 11
6577.1753049987
 21
4503.499784322
 31
0.0
  0
LINE
  5
222
330
1F
100
AcDbEntity
  8
0
  6
Continuous
 62
     7
100
AcDbLine
 10
6577.1753049987
 20
4503.499784322
 30
0.0
 11
6575.0811703103
 21
4503.6495111897
 31
0.0
  0
LINE
  5
223
330
1F
100
AcDbEntity
  8
0
  6
Continuous
 62
     7
100
AcDbLine
 10
6575.0811703103
 20
4503.6495111897
 30
0.0
 11
6572.9563392299
 21
4503.6495111897
 31
0.0
  0
LINE
  5
224
330
1F
100
AcDbEntity
  8
0
  6
Continuous
 62
     7
100
AcDbLine
 10
6572.9563392299
 20
4503.6495111897
 30
0.0
 11
6570.8622045415
 21
4503.499784322
 31
0.0
  0
LINE
  5
225
330
1F
100
AcDbEntity
  8
0
  6
Continuous
 62
     7
100
AcDbLine
 10
6570.8622045415
 20
4503.499784322
 30
0.0
 11
6568.8592798608
 21
4503.2048605397
 31
0.0
  0
LINE
  5
226
330
1F
100
AcDbEntity
  8
0
  6
Continuous
 62
     7
100
AcDbLine
 10
6568.8592798608
 20
4503.2048605397
 30
0.0
 11
6567.0054412978
 21
4502.7729652836
 31
0.0
  0
LINE
  5
227
330
1F
100
AcDbEntity
  8
0
  6
Continuous
 62
     7
100
AcDbLine
 10
6567.0054412978
 20
4502.7729652836
 30
0.0
 11
6565.3542585271
 21
4502.2168539479
 31
0.0
  0
LINE
  5
228
330
1F
100
AcDbEntity
  8
0
  6
Continuous
 62
     7
100
AcDbLine
 10
6565.3542585271
 20
4502.2168539479
 30
0.0
 11
6563.9534301656
 21
4501.5523813679
 31
0.0
  0
LINE
  5
229
330
1F
100
AcDbEntity
  8
0
  6
Continuous
 62
     7
100
AcDbLine
 10
6563.9534301656
 20
4501.5523813679
 30
0.0
 11
6562.8434575694
 21
4500.7988594487
 31
0.0
  0
LINE
  5
22A
330
1F
100
AcDbEntity
  8
0
  6
Continuous
 62
     7
100
AcDbLine
 10
6562.8434575694
 20
4500.7988594487
 30
0.0
 11
6562.0563931363
 21
4499.9781034901
 31
0.0
  0
LINE
  5
22B
330
1F
100
AcDbEntity
  8
0
  6
Continuous
 62
     7
100
AcDbLine
 10
6562.0563931363
 20
4499.9781034901
 30
0.0
 11
6562.034920563
 21
4499.915041776
 31
0.0
  0
LINE
  5
22C
330
1F
100
AcDbEntity
  8
0
  6
Continuous
 62
     7
100
AcDbLine
 10
6562.034920563
 20
4499.915041776
 30
0.0
 11
6562.0603568452
 21
4499.8522184804
 31
0.0
  0
LINE
  5
22D
330
1F
100
AcDbEntity
  8
0
  6
Continuous
 62
     7
100
AcDbLine
 10
6562.0603568452
 20
4499.8522184804
 30
0.0
 11
6562.1303028958
 21
4499.7955940678
 31
0.0
  0
LINE
  5
22E
330
1F
100
AcDbEntity
  8
0
  6
Continuous
 62
     7
100
AcDbLine
 10
6562.1303028958
 20
4499.7955940678
 30
0.0
 11
6562.2381873029
 21
4499.7504137471
 31
0.0
  0
LINE
  5
22F
330
1F
100
AcDbEntity
  8
0
  6
Continuous
 62
     7
100
AcDbLine
 10
6562.2381873029
 20
4499.7504137471
 30
0.0
 11
6562.373907079
 21
4499.7209690526
 31
0.0
  0
LINE
  5
230
330
1F
100
AcDbEntity
  8
0
  6
Continuous
 62
     7
100
AcDbLine
 10
6562.373907079
 20
4499.7209690526
 30
0.0
 11
6562.5247217315
 21
4499.7098825886
 31
0.0
  0
LINE
  5
231
330
1F
100
AcDbEntity
  8
0
  6
Continuous
 62
     7
100
AcDbLine
 10
6562.5247217315
 20
4499.7098825886
 30
0.0
 11
6562.6764900582
 21
4499.7183464482
 31
0.0
  0
LINE
  5
232
330
1F
100
AcDbEntity
  8
0
  6
Continuous
 62
     7
100
AcDbLine
 10
6562.6764900582
 20
4499.7183464482
 30
0.0
 11
6562.8149814504
 21
4499.7455261662
 31
0.0
  0
LINE
  5
233
330
1F
100
AcDbEntity
  8
0
  6
Continuous
 62
     7
100
AcDbLine
 10
6585.2225280898
 20
4499.7455261662
 30
0.0
 11
6585.3610194819
 21
4499.7183464482
 31
0.0
  0
LINE
  5
234
330
1F
100
AcDbEntity
  8
0
  6
Continuous
 62
     7
100
AcDbLine
 10
6585.3610194819
 20
4499.7183464482
 30
0.0
 11
6585.5127878087
 21
4499.7098825886
 31
0.0
  0
LINE
  5
235
330
1F
100
AcDbEntity
  8
0
  6
Continuous
 62
     7
100
AcDbLine
 10
6585.5127878087
 20
4499.7098825886
 30
0.0
 11
6585.6636024611
 21
4499.7209690526
 31
0.0
  0
LINE
  5
236
330
1F
100
AcDbEntity
  8
0
  6
Continuous
 62
     7
100
AcDbLine
 10
6585.6636024611
 20
4499.7209690526
 30
0.0
 11
6585.7993222373
 21
4499.7504137471
 31
0.0
  0
LINE
  5
237
330
1F
100
AcDbEntity
  8
0
  6
Continuous
 62
     7
100
AcDbLine
 10
6585.7993222373
 20
4499.7504137471
 30
0.0
 11
6585.9072066443
 21
4499.7955940678
 31
0.0
  0
LINE
  5
238
330
1F
100
AcDbEntity
  8
0
  6
Continuous
 62
     7
100
AcDbLine
 10
6585.9072066443
 20
4499.7955940678
 30
0.0
 11
6585.977152695
 21
4499.8522184804
 31
0.0
  0
LINE
  5
239
330
1F
100
AcDbEntity
  8
0
  6
Continuous
 62
     7
100
AcDbLine
 10
6585.977152695
 20
4499.8522184804
 30
0.0
 11
6586.0025889771
 21
4499.915041776
 31
0.0
  0
LINE
  5
23A
330
1F
100
AcDbEntity
  8
0
  6
Continuous
 62
     7
100
AcDbLine
 10
6586.0025889771
 20
4499.915041776
 30
0.0
 11
6585.9811164039
 21
4499.9781034901
 31
0.0
  0
LINE
  5
23B
330
1F
100
AcDbEntity
  8
0
  6
Continuous
 62
     7
100
AcDbLine
 10
6562.8149814504
 20
4497.1943281605
 30
0.0
 11
6562.6764900582
 21
4497.2215078786
 31
0.0
  0
LINE
  5
23C
330
1F
100
AcDbEntity
  8
0
  6
Continuous
 62
     7
100
AcDbLine
 10
6562.6764900582
 20
4497.2215078786
 30
0.0
 11
6562.5247217315
 21
4497.2299717381
 31
0.0
  0
LINE
  5
23D
330
1F
100
AcDbEntity
  8
0
  6
Continuous
 62
     7
100
AcDbLine
 10
6562.5247217315
 20
4497.2299717381
 30
0.0
 11
6562.373907079
 21
4497.2190044835
 31
0.0
  0
LINE
  5
23E
330
1F
100
AcDbEntity
  8
0
  6
Continuous
 62
     7
100
AcDbLine
 10
6562.373907079
 20
4497.2190044835
 30
0.0
 11
6562.2381873029
 21
4497.1894405797
 31
0.0
  0
LINE
  5
23F
330
1F
100
AcDbEntity
  8
0
  6
Continuous
 62
     7
100
AcDbLine
 10
6562.2381873029
 20
4497.1894405797
 30
0.0
 11
6562.1303028958
 21
4497.1442602589
 31
0.0
  0
LINE
  5
240
330
1F
100
AcDbEntity
  8
0
  6
Continuous
 62
     7
100
AcDbLine
 10
6562.1303028958
 20
4497.1442602589
 30
0.0
 11
6562.0603568452
 21
4497.0876358464
 31
0.0
  0
LINE
  5
241
330
1F
100
AcDbEntity
  8
0
  6
Continuous
 62
     7
100
AcDbLine
 10
6562.0603568452
 20
4497.0876358464
 30
0.0
 11
6562.034920563
 21
4497.0248125508
 31
0.0
  0
LINE
  5
242
330
1F
100
AcDbEntity
  8
0
  6
Continuous
 62
     7
100
AcDbLine
 10
6562.034920563
 20
4497.0248125508
 30
0.0
 11
6562.0563931363
 21
4496.9617508366
 31
0.0
  0
LINE
  5
243
330
1F
100
AcDbEntity
  8
0
  6
Continuous
 62
     7
100
AcDbLine
 10
6562.0563931363
 20
4496.9617508366
 30
0.0
 11
6562.8434575694
 21
4496.1409948781
 31
0.0
  0
LINE
  5
244
330
1F
100
AcDbEntity
  8
0
  6
Continuous
 62
     7
100
AcDbLine
 10
6562.8434575694
 20
4496.1409948781
 30
0.0
 11
6563.9534301656
 21
4495.3874729588
 31
0.0
  0
LINE
  5
245
330
1F
100
AcDbEntity
  8
0
  6
Continuous
 62
     7
100
AcDbLine
 10
6563.9534301656
 20
4495.3874729588
 30
0.0
 11
6565.3542585271
 21
4494.7230003789
 31
0.0
  0
LINE
  5
246
330
1F
100
AcDbEntity
  8
0
  6
Continuous
 62
     7
100
AcDbLine
 10
6565.3542585271
 20
4494.7230003789
 30
0.0
 11
6567.0054412978
 21
4494.1668890431
 31
0.0
  0
LINE
  5
247
330
1F
100
AcDbEntity
  8
0
  6
Continuous
 62
     7
100
AcDbLine
 10
6567.0054412978
 20
4494.1668890431
 30
0.0
 11
6568.8592798608
 21
4493.7351129964
 31
0.0
  0
LINE
  5
248
330
1F
100
AcDbEntity
  8
0
  6
Continuous
 62
     7
100
AcDbLine
 10
6568.8592798608
 20
4493.7351129964
 30
0.0
 11
6570.8622045415
 21
4493.4400700047
 31
0.0
  0
LINE
  5
249
330
1F
100
AcDbEntity
  8
0
  6
Continuous
 62
     7
100
AcDbLine
 10
6570.8622045415
 20
4493.4400700047
 30
0.0
 11
6572.9563392299
 21
4493.290343137
 31
0.0
  0
LINE
  5
24A
330
1F
100
AcDbEntity
  8
0
  6
Continuous
 62
     7
100
AcDbLine
 10
6572.9563392299
 20
4493.290343137
 30
0.0
 11
6575.0811703103
 21
4493.290343137
 31
0.0
  0
LINE
  5
24B
330
1F
100
AcDbEntity
  8
0
  6
Continuous
 62
     7
100
AcDbLine
 10
6575.0811703103
 20
4493.290343137
 30
0.0
 11
6577.1753049987
 21
4493.4400700047
 31
0.0
  0
LINE
  5
24C
330
1F
100
AcDbEntity
  8
0
  6
Continuous
 62
     7
100
AcDbLine
 10
6577.1753049987
 20
4493.4400700047
 30
0.0
 11
6579.1782296794
 21
4493.7351129964
 31
0.0
  0
LINE
  5
24D
330
1F
100
AcDbEntity
  8
0
  6
Continuous
 62
     7
100
AcDbLine
 10
6579.1782296794
 20
4493.7351129964
 30
0.0
 11
6581.0320682423
 21
4494.1668890431
 31
0.0
  0
LINE
  5
24E
330
1F
100
AcDbEntity
  8
0
  6
Continuous
 62
     7
100
AcDbLine
 10
6581.0320682423
 20
4494.1668890431
 30
0.0
 11
6582.6832510131
 21
4494.7230003789
 31
0.0
  0
LINE
  5
24F
330
1F
100
AcDbEntity
  8
0
  6
Continuous
 62
     7
100
AcDbLine
 10
6582.6832510131
 20
4494.7230003789
 30
0.0
 11
6584.0840793746
 21
4495.3874729588
 31
0.0
  0
LINE
  5
250
330
1F
100
AcDbEntity
  8
0
  6
Continuous
 62
     7
100
AcDbLine
 10
6584.0840793746
 20
4495.3874729588
 30
0.0
 11
6585.1940519708
 21
4496.1409948781
 31
0.0
  0
LINE
  5
251
330
1F
100
AcDbEntity
  8
0
  6
Continuous
 62
     7
100
AcDbLine
 10
6585.1940519708
 20
4496.1409948781
 30
0.0
 11
6585.9811164039
 21
4496.9617508366
 31
0.0
  0
LINE
  5
252
330
1F
100
AcDbEntity
  8
0
  6
Continuous
 62
     7
100
AcDbLine
 10
6585.9811164039
 20
4496.9617508366
 30
0.0
 11
6586.0025889771
 21
4497.0248125508
 31
0.0
  0
LINE
  5
253
330
1F
100
AcDbEntity
  8
0
  6
Continuous
 62
     7
100
AcDbLine
 10
6586.0025889771
 20
4497.0248125508
 30
0.0
 11
6585.977152695
 21
4497.0876358464
 31
0.0
  0
LINE
  5
254
330
1F
100
AcDbEntity
  8
0
  6
Continuous
 62
     7
100
AcDbLine
 10
6585.977152695
 20
4497.0876358464
 30
0.0
 11
6585.9072066443
 21
4497.1442602589
 31
0.0
  0
LINE
  5
255
330
1F
100
AcDbEntity
  8
0
  6
Continuous
 62
     7
100
AcDbLine
 10
6585.9072066443
 20
4497.1442602589
 30
0.0
 11
6585.7993222373
 21
4497.1894405797
 31
0.0
  0
LINE
  5
256
330
1F
100
AcDbEntity
  8
0
  6
Continuous
 62
     7
100
AcDbLine
 10
6585.7993222373
 20
4497.1894405797
 30
0.0
 11
6585.6636024611
 21
4497.2190044835
 31
0.0
  0
LINE
  5
257
330
1F
100
AcDbEntity
  8
0
  6
Continuous
 62
     7
100
AcDbLine
 10
6585.6636024611
 20
4497.2190044835
 30
0.0
 11
6585.5127878087
 21
4497.2299717381
 31
0.0
  0
LINE
  5
258
330
1F
100
AcDbEntity
  8
0
  6
Continuous
 62
     7
100
AcDbLine
 10
6585.5127878087
 20
4497.2299717381
 30
0.0
 11
6585.3610194819
 21
4497.2215078786
 31
0.0
  0
LINE
  5
259
330
1F
100
AcDbEntity
  8
0
  6
Continuous
 62
     7
100
AcDbLine
 10
6585.3610194819
 20
4497.2215078786
 30
0.0
 11
6585.2225280898
 21
4497.1943281605
 31
0.0
  0
LINE
  5
25A
330
1F
100
AcDbEntity
  8
0
  6
Continuous
 62
     7
100
AcDbLine
 10
5974.0187681811
 20
4491.6080616429
 30
0.0
 11
5976.4211631911
 21
4491.6812561467
 31
0.0
  0
LINE
  5
25B
330
1F
100
AcDbEntity
  8
0
  6
Continuous
 62
     7
100
AcDbLine
 10
5976.4211631911
 20
4491.6812561467
 30
0.0
 11
5978.7723876136
 21
4491.8990515187
 31
0.0
  0
LINE
  5
25C
330
1F
100
AcDbEntity
  8
0
  6
Continuous
 62
     7
100
AcDbLine
 10
5978.7723876136
 20
4491.8990515187
 30
0.0
 11
5981.0222841399
 21
4492.2569178059
 31
0.0
  0
LINE
  5
25D
330
1F
100
AcDbEntity
  8
0
  6
Continuous
 62
     7
100
AcDbLine
 10
5981.0222841399
 20
4492.2569178059
 30
0.0
 11
5983.1229306357
 21
4492.7472256138
 31
0.0
  0
LINE
  5
25E
330
1F
100
AcDbEntity
  8
0
  6
Continuous
 62
     7
100
AcDbLine
 10
5983.1229306357
 20
4492.7472256138
 30
0.0
 11
5985.0295044082
 21
4493.359484525
 31
0.0
  0
LINE
  5
25F
330
1F
100
AcDbEntity
  8
0
  6
Continuous
 62
     7
100
AcDbLine
 10
5985.0295044082
 20
4493.359484525
 30
0.0
 11
5986.7014444964
 21
4494.0805815175
 31
0.0
  0
LINE
  5
260
330
1F
100
AcDbEntity
  8
0
  6
Continuous
 62
     7
100
AcDbLine
 10
5986.7014444964
 20
4494.0805815175
 30
0.0
 11
5988.1030477183
 21
4494.8953770116
 31
0.0
  0
LINE
  5
261
330
1F
100
AcDbEntity
  8
0
  6
Continuous
 62
     7
100
AcDbLine
 10
5988.1030477183
 20
4494.8953770116
 30
0.0
 11
5989.2044819491
 21
4495.7862280324
 31
0.0
  0
LINE
  5
262
330
1F
100
AcDbEntity
  8
0
  6
Continuous
 62
     7
100
AcDbLine
 10
5989.2044819491
 20
4495.7862280324
 30
0.0
 11
5989.9822331565
 21
4496.7344187215
 31
0.0
  0
LINE
  5
263
330
1F
100
AcDbEntity
  8
0
  6
Continuous
 62
     7
100
AcDbLine
 10
5989.9822331565
 20
4496.7344187215
 30
0.0
 11
5990.4197610515
 21
4497.719445081
 31
0.0
  0
LINE
  5
264
330
1F
100
AcDbEntity
  8
0
  6
Continuous
 62
     7
100
AcDbLine
 10
5990.4197610515
 20
4497.719445081
 30
0.0
 11
5990.5077375071
 21
4498.7205646947
 31
0.0
  0
LINE
  5
265
330
1F
100
AcDbEntity
  8
0
  6
Continuous
 62
     7
100
AcDbLine
 10
5990.5077375071
 20
4498.7205646947
 30
0.0
 11
5990.2442849772
 21
4499.7163198903
 31
0.0
  0
LINE
  5
266
330
1F
100
AcDbEntity
  8
0
  6
Continuous
 62
     7
100
AcDbLine
 10
5990.2442849772
 20
4499.7163198903
 30
0.0
 11
5989.6350062983
 21
4500.6854914143
 31
0.0
  0
LINE
  5
267
330
1F
100
AcDbEntity
  8
0
  6
Continuous
 62
     7
100
AcDbLine
 10
5989.6350062983
 20
4500.6854914143
 30
0.0
 11
5988.692895283
 21
4501.6074560597
 31
0.0
  0
LINE
  5
268
330
1F
100
AcDbEntity
  8
0
  6
Continuous
 62
     7
100
AcDbLine
 10
5988.692895283
 20
4501.6074560597
 30
0.0
 11
5987.4380386966
 21
4502.4625442937
 31
0.0
  0
LINE
  5
269
330
1F
100
AcDbEntity
  8
0
  6
Continuous
 62
     7
100
AcDbLine
 10
5987.4380386966
 20
4502.4625442937
 30
0.0
 11
5985.8971692222
 21
4503.2326363042
 31
0.0
  0
LINE
  5
26A
330
1F
100
AcDbEntity
  8
0
  6
Continuous
 62
     7
100
AcDbLine
 10
5985.8971692222
 20
4503.2326363042
 30
0.0
 11
5984.1031290191
 21
4503.9010427907
 31
0.0
  0
LINE
  5
26B
330
1F
100
AcDbEntity
  8
0
  6
Continuous
 62
     7
100
AcDbLine
 10
5984.1031290191
 20
4503.9010427907
 30
0.0
 11
5982.0941544669
 21
4504.4538162663
 31
0.0
  0
LINE
  5
26C
330
1F
100
AcDbEntity
  8
0
  6
Continuous
 62
     7
100
AcDbLine
 10
5982.0941544669
 20
4504.4538162663
 30
0.0
 11
5979.913071503
 21
4504.8790358021
 31
0.0
  0
LINE
  5
26D
330
1F
100
AcDbEntity
  8
0
  6
Continuous
 62
     7
100
AcDbLine
 10
5979.913071503
 20
4504.8790358021
 30
0.0
 11
5977.6063419478
 21
4505.1676414921
 31
0.0
  0
LINE
  5
26E
330
1F
100
AcDbEntity
  8
0
  6
Continuous
 62
     7
100
AcDbLine
 10
5977.6063419478
 20
4505.1676414921
 30
0.0
 11
5975.2231694358
 21
4505.3134344533
 31
0.0
  0
LINE
  5
26F
330
1F
100
AcDbEntity
  8
0
  6
Continuous
 62
     7
100
AcDbLine
 10
5975.2231694358
 20
4505.3134344533
 30
0.0
 11
5972.8143371241
 21
4505.3134344533
 31
0.0
  0
LINE
  5
270
330
1F
100
AcDbEntity
  8
0
  6
Continuous
 62
     7
100
AcDbLine
 10
5972.8143371241
 20
4505.3134344533
 30
0.0
 11
5970.4311646121
 21
4505.1676414921
 31
0.0
  0
LINE
  5
271
330
1F
100
AcDbEntity
  8
0
  6
Continuous
 62
     7
100
AcDbLine
 10
5970.4311646121
 20
4505.1676414921
 30
0.0
 11
5968.124435057
 21
4504.8790358021
 31
0.0
  0
LINE
  5
272
330
1F
100
AcDbEntity
  8
0
  6
Continuous
 62
     7
100
AcDbLine
 10
5968.124435057
 20
4504.8790358021
 30
0.0
 11
5965.943352093
 21
4504.4538162663
 31
0.0
  0
LINE
  5
273
330
1F
100
AcDbEntity
  8
0
  6
Continuous
 62
     7
100
AcDbLine
 10
5965.943352093
 20
4504.4538162663
 30
0.0
 11
5963.9343775409
 21
4503.9010427907
 31
0.0
  0
LINE
  5
274
330
1F
100
AcDbEntity
  8
0
  6
Continuous
 62
     7
100
AcDbLine
 10
5963.9343775409
 20
4503.9010427907
 30
0.0
 11
5962.1403373378
 21
4503.2326363042
 31
0.0
  0
LINE
  5
275
330
1F
100
AcDbEntity
  8
0
  6
Continuous
 62
     7
100
AcDbLine
 10
5962.1403373378
 20
4503.2326363042
 30
0.0
 11
5960.5994678634
 21
4502.4625442937
 31
0.0
  0
LINE
  5
276
330
1F
100
AcDbEntity
  8
0
  6
Continuous
 62
     7
100
AcDbLine
 10
5960.5994678634
 20
4502.4625442937
 30
0.0
 11
5959.3446112769
 21
4501.6074560597
 31
0.0
  0
LINE
  5
277
330
1F
100
AcDbEntity
  8
0
  6
Continuous
 62
     7
100
AcDbLine
 10
5959.3446112769
 20
4501.6074560597
 30
0.0
 11
5958.4025002616
 21
4500.6854914143
 31
0.0
  0
LINE
  5
278
330
1F
100
AcDbEntity
  8
0
  6
Continuous
 62
     7
100
AcDbLine
 10
5958.4025002616
 20
4500.6854914143
 30
0.0
 11
5957.7932215827
 21
4499.7163198903
 31
0.0
  0
LINE
  5
279
330
1F
100
AcDbEntity
  8
0
  6
Continuous
 62
     7
100
AcDbLine
 10
5957.7932215827
 20
4499.7163198903
 30
0.0
 11
5957.5297690528
 21
4498.7205646947
 31
0.0
  0
LINE
  5
27A
330
1F
100
AcDbEntity
  8
0
  6
Continuous
 62
     7
100
AcDbLine
 10
5957.5297690528
 20
4498.7205646947
 30
0.0
 11
5957.6177455085
 21
4497.719445081
 31
0.0
  0
LINE
  5
27B
330
1F
100
AcDbEntity
  8
0
  6
Continuous
 62
     7
100
AcDbLine
 10
5957.6177455085
 20
4497.719445081
 30
0.0
 11
5958.0552734034
 21
4496.7344187215
 31
0.0
  0
LINE
  5
27C
330
1F
100
AcDbEntity
  8
0
  6
Continuous
 62
     7
100
AcDbLine
 10
5958.0552734034
 20
4496.7344187215
 30
0.0
 11
5958.8330544131
 21
4495.7862280324
 31
0.0
  0
LINE
  5
27D
330
1F
100
AcDbEntity
  8
0
  6
Continuous
 62
     7
100
AcDbLine
 10
5958.8330544131
 20
4495.7862280324
 30
0.0
 11
5959.9344588416
 21
4494.8953770116
 31
0.0
  0
LINE
  5
27E
330
1F
100
AcDbEntity
  8
0
  6
Continuous
 62
     7
100
AcDbLine
 10
5959.9344588416
 20
4494.8953770116
 30
0.0
 11
5961.3360918658
 21
4494.0805815175
 31
0.0
  0
LINE
  5
27F
330
1F
100
AcDbEntity
  8
0
  6
Continuous
 62
     7
100
AcDbLine
 10
5961.3360918658
 20
4494.0805815175
 30
0.0
 11
5963.0080021518
 21
4493.359484525
 31
0.0
  0
LINE
  5
280
330
1F
100
AcDbEntity
  8
0
  6
Continuous
 62
     7
100
AcDbLine
 10
5963.0080021518
 20
4493.359484525
 30
0.0
 11
5964.9145759242
 21
4492.7472256138
 31
0.0
  0
LINE
  5
281
330
1F
100
AcDbEntity
  8
0
  6
Continuous
 62
     7
100
AcDbLine
 10
5964.9145759242
 20
4492.7472256138
 30
0.0
 11
5967.01522242
 21
4492.2569178059
 31
0.0
  0
LINE
  5
282
330
1F
100
AcDbEntity
  8
0
  6
Continuous
 62
     7
100
AcDbLine
 10
5967.01522242
 20
4492.2569178059
 30
0.0
 11
5969.2651189464
 21
4491.8990515187
 31
0.0
  0
LINE
  5
283
330
1F
100
AcDbEntity
  8
0
  6
Continuous
 62
     7
100
AcDbLine
 10
5969.2651189464
 20
4491.8990515187
 30
0.0
 11
5971.6163433688
 21
4491.6812561467
 31
0.0
  0
LINE
  5
284
330
1F
100
AcDbEntity
  8
0
  6
Continuous
 62
     7
100
AcDbLine
 10
5971.6163433688
 20
4491.6812561467
 30
0.0
 11
5974.0187681811
 21
4491.6080616429
 31
0.0
  0
LINE
  5
285
330
1F
100
AcDbEntity
  8
0
  6
Continuous
 62
     7
100
AcDbLine
 10
5992.0177019732
 20
4499.915041776
 30
0.0
 11
5991.9201589721
 21
4500.616588445
 31
0.0
  0
LINE
  5
286
330
1F
100
AcDbEntity
  8
0
  6
Continuous
 62
     7
100
AcDbLine
 10
5991.9201589721
 20
4500.616588445
 30
0.0
 11
5991.4840913909
 21
4501.6450069859
 31
0.0
  0
LINE
  5
287
330
1F
100
AcDbEntity
  8
0
  6
Continuous
 62
     7
100
AcDbLine
 10
5991.4840913909
 20
4501.6450069859
 30
0.0
 11
5990.7080687182
 21
4502.6382587865
 31
0.0
  0
LINE
  5
288
330
1F
100
AcDbEntity
  8
0
  6
Continuous
 62
     7
100
AcDbLine
 10
5990.7080687182
 20
4502.6382587865
 30
0.0
 11
5989.6072007316
 21
4503.5769127324
 31
0.0
  0
LINE
  5
289
330
1F
100
AcDbEntity
  8
0
  6
Continuous
 62
     7
100
AcDbLine
 10
5989.6072007316
 20
4503.5769127324
 30
0.0
 11
5988.202945103
 21
4504.4427298024
 31
0.0
  0
LINE
  5
28A
330
1F
100
AcDbEntity
  8
0
  6
Continuous
 62
     7
100
AcDbLine
 10
5988.202945103
 20
4504.4427298024
 30
0.0
 11
5986.5226007598
 21
4505.2187822774
 31
0.0
  0
LINE
  5
28B
330
1F
100
AcDbEntity
  8
0
  6
Continuous
 62
     7
100
AcDbLine
 10
5986.5226007598
 20
4505.2187822774
 30
0.0
 11
5984.598890652
 21
4505.8900497868
 31
0.0
  0
LINE
  5
28C
330
1F
100
AcDbEntity
  8
0
  6
Continuous
 62
     7
100
AcDbLine
 10
5984.598890652
 20
4505.8900497868
 30
0.0
 11
5982.4692464965
 21
4506.4435385182
 31
0.0
  0
LINE
  5
28D
330
1F
100
AcDbEntity
  8
0
  6
Continuous
 62
     7
100
AcDbLine
 10
5982.4692464965
 20
4506.4435385182
 30
0.0
 11
5980.1751233237
 21
4506.8682812169
 31
0.0
  0
LINE
  5
28E
330
1F
100
AcDbEntity
  8
0
  6
Continuous
 62
     7
100
AcDbLine
 10
5980.1751233237
 20
4506.8682812169
 30
0.0
 11
5977.7611650126
 21
4507.1561716511
 31
0.0
  0
LINE
  5
28F
330
1F
100
AcDbEntity
  8
0
  6
Continuous
 62
     7
100
AcDbLine
 10
5977.7611650126
 20
4507.1561716511
 30
0.0
 11
5975.2743698256
 21
4507.3014877751
 31
0.0
  0
LINE
  5
290
330
1F
100
AcDbEntity
  8
0
  6
Continuous
 62
     7
100
AcDbLine
 10
5975.2743698256
 20
4507.3014877751
 30
0.0
 11
5972.7631367343
 21
4507.3014877751
 31
0.0
  0
LINE
  5
291
330
1F
100
AcDbEntity
  8
0
  6
Continuous
 62
     7
100
AcDbLine
 10
5972.7631367343
 20
4507.3014877751
 30
0.0
 11
5970.2763415473
 21
4507.1561716511
 31
0.0
  0
LINE
  5
292
330
1F
100
AcDbEntity
  8
0
  6
Continuous
 62
     7
100
AcDbLine
 10
5970.2763415473
 20
4507.1561716511
 30
0.0
 11
5967.8623832362
 21
4506.8682812169
 31
0.0
  0
LINE
  5
293
330
1F
100
AcDbEntity
  8
0
  6
Continuous
 62
     7
100
AcDbLine
 10
5967.8623832362
 20
4506.8682812169
 30
0.0
 11
5965.5682600634
 21
4506.4435385182
 31
0.0
  0
LINE
  5
294
330
1F
100
AcDbEntity
  8
0
  6
Continuous
 62
     7
100
AcDbLine
 10
5965.5682600634
 20
4506.4435385182
 30
0.0
 11
5963.4386159079
 21
4505.8900497868
 31
0.0
  0
LINE
  5
295
330
1F
100
AcDbEntity
  8
0
  6
Continuous
 62
     7
100
AcDbLine
 10
5963.4386159079
 20
4505.8900497868
 30
0.0
 11
5961.5149058001
 21
4505.2187822774
 31
0.0
  0
LINE
  5
296
330
1F
100
AcDbEntity
  8
0
  6
Continuous
 62
     7
100
AcDbLine
 10
5961.5149058001
 20
4505.2187822774
 30
0.0
 11
5959.834561457
 21
4504.4427298024
 31
0.0
  0
LINE
  5
297
330
1F
100
AcDbEntity
  8
0
  6
Continuous
 62
     7
100
AcDbLine
 10
5959.834561457
 20
4504.4427298024
 30
0.0
 11
5958.4303058284
 21
4503.5769127324
 31
0.0
  0
LINE
  5
298
330
1F
100
AcDbEntity
  8
0
  6
Continuous
 62
     7
100
AcDbLine
 10
5958.4303058284
 20
4503.5769127324
 30
0.0
 11
5957.3294378417
 21
4502.6382587865
 31
0.0
  0
LINE
  5
299
330
1F
100
AcDbEntity
  8
0
  6
Continuous
 62
     7
100
AcDbLine
 10
5957.3294378417
 20
4502.6382587865
 30
0.0
 11
5956.5534449714
 21
4501.6450069859
 31
0.0
  0
LINE
  5
29A
330
1F
100
AcDbEntity
  8
0
  6
Continuous
 62
     7
100
AcDbLine
 10
5956.5534449714
 20
4501.6450069859
 30
0.0
 11
5956.1173475879
 21
4500.616588445
 31
0.0
  0
LINE
  5
29B
330
1F
100
AcDbEntity
  8
0
  6
Continuous
 62
     7
100
AcDbLine
 10
5956.1173475879
 20
4500.616588445
 30
0.0
 11
5956.0191787379
 21
4499.7830770924
 31
0.0
  0
LINE
  5
29C
330
1F
100
AcDbEntity
  8
0
  6
Continuous
 62
     7
100
AcDbLine
 10
5985.9811223643
 20
4499.9781034901
 30
0.0
 11
5985.1940430301
 21
4500.7988594487
 31
0.0
  0
LINE
  5
29D
330
1F
100
AcDbEntity
  8
0
  6
Continuous
 62
     7
100
AcDbLine
 10
5985.1940430301
 20
4500.7988594487
 30
0.0
 11
5984.0840853351
 21
4501.5523813679
 31
0.0
  0
LINE
  5
29E
330
1F
100
AcDbEntity
  8
0
  6
Continuous
 62
     7
100
AcDbLine
 10
5984.0840853351
 20
4501.5523813679
 30
0.0
 11
5982.6832569735
 21
4502.2168539479
 31
0.0
  0
LINE
  5
29F
330
1F
100
AcDbEntity
  8
0
  6
Continuous
 62
     7
100
AcDbLine
 10
5982.6832569735
 20
4502.2168539479
 30
0.0
 11
5981.0320593017
 21
4502.7729652836
 31
0.0
  0
LINE
  5
2A0
330
1F
100
AcDbEntity
  8
0
  6
Continuous
 62
     7
100
AcDbLine
 10
5981.0320593017
 20
4502.7729652836
 30
0.0
 11
5979.1782356398
 21
4503.2048605397
 31
0.0
  0
LINE
  5
2A1
330
1F
100
AcDbEntity
  8
0
  6
Continuous
 62
     7
100
AcDbLine
 10
5979.1782356398
 20
4503.2048605397
 30
0.0
 11
5977.1753109591
 21
4503.499784322
 31
0.0
  0
LINE
  5
2A2
330
1F
100
AcDbEntity
  8
0
  6
Continuous
 62
     7
100
AcDbLine
 10
5977.1753109591
 20
4503.499784322
 30
0.0
 11
5975.0811613696
 21
4503.6495111897
 31
0.0
  0
LINE
  5
2A3
330
1F
100
AcDbEntity
  8
0
  6
Continuous
 62
     7
100
AcDbLine
 10
5975.0811613696
 20
4503.6495111897
 30
0.0
 11
5972.9563451903
 21
4503.6495111897
 31
0.0
  0
LINE
  5
2A4
330
1F
100
AcDbEntity
  8
0
  6
Continuous
 62
     7
100
AcDbLine
 10
5972.9563451903
 20
4503.6495111897
 30
0.0
 11
5970.8621956008
 21
4503.499784322
 31
0.0
  0
LINE
  5
2A5
330
1F
100
AcDbEntity
  8
0
  6
Continuous
 62
     7
100
AcDbLine
 10
5970.8621956008
 20
4503.499784322
 30
0.0
 11
5968.8592709201
 21
4503.2048605397
 31
0.0
  0
LINE
  5
2A6
330
1F
100
AcDbEntity
  8
0
  6
Continuous
 62
     7
100
AcDbLine
 10
5968.8592709201
 20
4503.2048605397
 30
0.0
 11
5967.0054472583
 21
4502.7729652836
 31
0.0
  0
LINE
  5
2A7
330
1F
100
AcDbEntity
  8
0
  6
Continuous
 62
     7
100
AcDbLine
 10
5967.0054472583
 20
4502.7729652836
 30
0.0
 11
5965.3542495864
 21
4502.2168539479
 31
0.0
  0
LINE
  5
2A8
330
1F
100
AcDbEntity
  8
0
  6
Continuous
 62
     7
100
AcDbLine
 10
5965.3542495864
 20
4502.2168539479
 30
0.0
 11
5963.9534212249
 21
4501.5523813679
 31
0.0
  0
LINE
  5
2A9
330
1F
100
AcDbEntity
  8
0
  6
Continuous
 62
     7
100
AcDbLine
 10
5963.9534212249
 20
4501.5523813679
 30
0.0
 11
5962.8434635299
 21
4500.7988594487
 31
0.0
  0
LINE
  5
2AA
330
1F
100
AcDbEntity
  8
0
  6
Continuous
 62
     7
100
AcDbLine
 10
5962.8434635299
 20
4500.7988594487
 30
0.0
 11
5962.0563841956
 21
4499.9781034901
 31
0.0
  0
LINE
  5
2AB
330
1F
100
AcDbEntity
  8
0
  6
Continuous
 62
     7
100
AcDbLine
 10
5962.0563841956
 20
4499.9781034901
 30
0.0
 11
5962.0349265235
 21
4499.915041776
 31
0.0
  0
LINE
  5
2AC
330
1F
100
AcDbEntity
  8
0
  6
Continuous
 62
     7
100
AcDbLine
 10
5962.0349265235
 20
4499.915041776
 30
0.0
 11
5962.0603479045
 21
4499.8522184804
 31
0.0
  0
LINE
  5
2AD
330
1F
100
AcDbEntity
  8
0
  6
Continuous
 62
     7
100
AcDbLine
 10
5962.0603479045
 20
4499.8522184804
 30
0.0
 11
5962.1302939551
 21
4499.7955940678
 31
0.0
  0
LINE
  5
2AE
330
1F
100
AcDbEntity
  8
0
  6
Continuous
 62
     7
100
AcDbLine
 10
5962.1302939551
 20
4499.7955940678
 30
0.0
 11
5962.2381783622
 21
4499.7504137471
 31
0.0
  0
LINE
  5
2AF
330
1F
100
AcDbEntity
  8
0
  6
Continuous
 62
     7
100
AcDbLine
 10
5962.2381783622
 20
4499.7504137471
 30
0.0
 11
5962.3738981383
 21
4499.7209690526
 31
0.0
  0
LINE
  5
2B0
330
1F
100
AcDbEntity
  8
0
  6
Continuous
 62
     7
100
AcDbLine
 10
5962.3738981383
 20
4499.7209690526
 30
0.0
 11
5962.5247276919
 21
4499.7098825886
 31
0.0
  0
LINE
  5
2B1
330
1F
100
AcDbEntity
  8
0
  6
Continuous
 62
     7
100
AcDbLine
 10
5962.5247276919
 20
4499.7098825886
 30
0.0
 11
5962.6764811175
 21
4499.7183464482
 31
0.0
  0
LINE
  5
2B2
330
1F
100
AcDbEntity
  8
0
  6
Continuous
 62
     7
100
AcDbLine
 10
5962.6764811175
 20
4499.7183464482
 30
0.0
 11
5962.8149725097
 21
4499.7455261662
 31
0.0
  0
LINE
  5
2B3
330
1F
100
AcDbEntity
  8
0
  6
Continuous
 62
     7
100
AcDbLine
 10
5985.2225340503
 20
4499.7455261662
 30
0.0
 11
5985.3610254424
 21
4499.7183464482
 31
0.0
  0
LINE
  5
2B4
330
1F
100
AcDbEntity
  8
0
  6
Continuous
 62
     7
100
AcDbLine
 10
5985.3610254424
 20
4499.7183464482
 30
0.0
 11
5985.512778868
 21
4499.7098825886
 31
0.0
  0
LINE
  5
2B5
330
1F
100
AcDbEntity
  8
0
  6
Continuous
 62
     7
100
AcDbLine
 10
5985.512778868
 20
4499.7098825886
 30
0.0
 11
5985.6636084216
 21
4499.7209690526
 31
0.0
  0
LINE
  5
2B6
330
1F
100
AcDbEntity
  8
0
  6
Continuous
 62
     7
100
AcDbLine
 10
5985.6636084216
 20
4499.7209690526
 30
0.0
 11
5985.7993281978
 21
4499.7504137471
 31
0.0
  0
LINE
  5
2B7
330
1F
100
AcDbEntity
  8
0
  6
Continuous
 62
     7
100
AcDbLine
 10
5985.7993281978
 20
4499.7504137471
 30
0.0
 11
5985.9072126048
 21
4499.7955940678
 31
0.0
  0
LINE
  5
2B8
330
1F
100
AcDbEntity
  8
0
  6
Continuous
 62
     7
100
AcDbLine
 10
5985.9072126048
 20
4499.7955940678
 30
0.0
 11
5985.9771586554
 21
4499.8522184804
 31
0.0
  0
LINE
  5
2B9
330
1F
100
AcDbEntity
  8
0
  6
Continuous
 62
     7
100
AcDbLine
 10
5985.9771586554
 20
4499.8522184804
 30
0.0
 11
5986.0025800364
 21
4499.915041776
 31
0.0
  0
LINE
  5
2BA
330
1F
100
AcDbEntity
  8
0
  6
Continuous
 62
     7
100
AcDbLine
 10
5986.0025800364
 20
4499.915041776
 30
0.0
 11
5985.9811223643
 21
4499.9781034901
 31
0.0
  0
LINE
  5
2BB
330
1F
100
AcDbEntity
  8
0
  6
Continuous
 62
     7
100
AcDbLine
 10
5962.8149725097
 20
4497.1943281605
 30
0.0
 11
5962.6764811175
 21
4497.2215078786
 31
0.0
  0
LINE
  5
2BC
330
1F
100
AcDbEntity
  8
0
  6
Continuous
 62
     7
100
AcDbLine
 10
5962.6764811175
 20
4497.2215078786
 30
0.0
 11
5962.5247276919
 21
4497.2299717381
 31
0.0
  0
LINE
  5
2BD
330
1F
100
AcDbEntity
  8
0
  6
Continuous
 62
     7
100
AcDbLine
 10
5962.5247276919
 20
4497.2299717381
 30
0.0
 11
5962.3738981383
 21
4497.2190044835
 31
0.0
  0
LINE
  5
2BE
330
1F
100
AcDbEntity
  8
0
  6
Continuous
 62
     7
100
AcDbLine
 10
5962.3738981383
 20
4497.2190044835
 30
0.0
 11
5962.2381783622
 21
4497.1894405797
 31
0.0
  0
LINE
  5
2BF
330
1F
100
AcDbEntity
  8
0
  6
Continuous
 62
     7
100
AcDbLine
 10
5962.2381783622
 20
4497.1894405797
 30
0.0
 11
5962.1302939551
 21
4497.1442602589
 31
0.0
  0
LINE
  5
2C0
330
1F
100
AcDbEntity
  8
0
  6
Continuous
 62
     7
100
AcDbLine
 10
5962.1302939551
 20
4497.1442602589
 30
0.0
 11
5962.0603479045
 21
4497.0876358464
 31
0.0
  0
LINE
  5
2C1
330
1F
100
AcDbEntity
  8
0
  6
Continuous
 62
     7
100
AcDbLine
 10
5962.0603479045
 20
4497.0876358464
 30
0.0
 11
5962.0349265235
 21
4497.0248125508
 31
0.0
  0
LINE
  5
2C2
330
1F
100
AcDbEntity
  8
0
  6
Continuous
 62
     7
100
AcDbLine
 10
5962.0349265235
 20
4497.0248125508
 30
0.0
 11
5962.0563841956
 21
4496.9617508366
 31
0.0
  0
LINE
  5
2C3
330
1F
100
AcDbEntity
  8
0
  6
Continuous
 62
     7
100
AcDbLine
 10
5962.0563841956
 20
4496.9617508366
 30
0.0
 11
5962.8434635299
 21
4496.1409948781
 31
0.0
  0
LINE
  5
2C4
330
1F
100
AcDbEntity
  8
0
  6
Continuous
 62
     7
100
AcDbLine
 10
5962.8434635299
 20
4496.1409948781
 30
0.0
 11
5963.9534212249
 21
4495.3874729588
 31
0.0
  0
LINE
  5
2C5
330
1F
100
AcDbEntity
  8
0
  6
Continuous
 62
     7
100
AcDbLine
 10
5963.9534212249
 20
4495.3874729588
 30
0.0
 11
5965.3542495864
 21
4494.7230003789
 31
0.0
  0
LINE
  5
2C6
330
1F
100
AcDbEntity
  8
0
  6
Continuous
 62
     7
100
AcDbLine
 10
5965.3542495864
 20
4494.7230003789
 30
0.0
 11
5967.0054472583
 21
4494.1668890431
 31
0.0
  0
LINE
  5
2C7
330
1F
100
AcDbEntity
  8
0
  6
Continuous
 62
     7
100
AcDbLine
 10
5967.0054472583
 20
4494.1668890431
 30
0.0
 11
5968.8592709201
 21
4493.7351129964
 31
0.0
  0
LINE
  5
2C8
330
1F
100
AcDbEntity
  8
0
  6
Continuous
 62
     7
100
AcDbLine
 10
5968.8592709201
 20
4493.7351129964
 30
0.0
 11
5970.8621956008
 21
4493.4400700047
 31
0.0
  0
LINE
  5
2C9
330
1F
100
AcDbEntity
  8
0
  6
Continuous
 62
     7
100
AcDbLine
 10
5970.8621956008
 20
4493.4400700047
 30
0.0
 11
5972.9563451903
 21
4493.290343137
 31
0.0
  0
LINE
  5
2CA
330
1F
100
AcDbEntity
  8
0
  6
Continuous
 62
     7
100
AcDbLine
 10
5972.9563451903
 20
4493.290343137
 30
0.0
 11
5975.0811613696
 21
4493.290343137
 31
0.0
  0
LINE
  5
2CB
330
1F
100
AcDbEntity
  8
0
  6
Continuous
 62
     7
100
AcDbLine
 10
5975.0811613696
 20
4493.290343137
 30
0.0
 11
5977.1753109591
 21
4493.4400700047
 31
0.0
  0
LINE
  5
2CC
330
1F
100
AcDbEntity
  8
0
  6
Continuous
 62
     7
100
AcDbLine
 10
5977.1753109591
 20
4493.4400700047
 30
0.0
 11
5979.1782356398
 21
4493.7351129964
 31
0.0
  0
LINE
  5
2CD
330
1F
100
AcDbEntity
  8
0
  6
Continuous
 62
     7
100
AcDbLine
 10
5979.1782356398
 20
4493.7351129964
 30
0.0
 11
5981.0320593017
 21
4494.1668890431
 31
0.0
  0
LINE
  5
2CE
330
1F
100
AcDbEntity
  8
0
  6
Continuous
 62
     7
100
AcDbLine
 10
5981.0320593017
 20
4494.1668890431
 30
0.0
 11
5982.6832569735
 21
4494.7230003789
 31
0.0
  0
LINE
  5
2CF
330
1F
100
AcDbEntity
  8
0
  6
Continuous
 62
     7
100
AcDbLine
 10
5982.6832569735
 20
4494.7230003789
 30
0.0
 11
5984.0840853351
 21
4495.3874729588
 31
0.0
  0
LINE
  5
2D0
330
1F
100
AcDbEntity
  8
0
  6
Continuous
 62
     7
100
AcDbLine
 10
5984.0840853351
 20
4495.3874729588
 30
0.0
 11
5985.1940430301
 21
4496.1409948781
 31
0.0
  0
LINE
  5
2D1
330
1F
100
AcDbEntity
  8
0
  6
Continuous
 62
     7
100
AcDbLine
 10
5985.1940430301
 20
4496.1409948781
 30
0.0
 11
5985.9811223643
 21
4496.9617508366
 31
0.0
  0
LINE
  5
2D2
330
1F
100
AcDbEntity
  8
0
  6
Continuous
 62
     7
100
AcDbLine
 10
5985.9811223643
 20
4496.9617508366
 30
0.0
 11
5986.0025800364
 21
4497.0248125508
 31
0.0
  0
LINE
  5
2D3
330
1F
100
AcDbEntity
  8
0
  6
Continuous
 62
     7
100
AcDbLine
 10
5986.0025800364
 20
4497.0248125508
 30
0.0
 11
5985.9771586554
 21
4497.0876358464
 31
0.0
  0
LINE
  5
2D4
330
1F
100
AcDbEntity
  8
0
  6
Continuous
 62
     7
100
AcDbLine
 10
5985.9771586554
 20
4497.0876358464
 30
0.0
 11
5985.9072126048
 21
4497.1442602589
 31
0.0
  0
LINE
  5
2D5
330
1F
100
AcDbEntity
  8
0
  6
Continuous
 62
     7
100
AcDbLine
 10
5985.9072126048
 20
4497.1442602589
 30
0.0
 11
5985.7993281978
 21
4497.1894405797
 31
0.0
  0
LINE
  5
2D6
330
1F
100
AcDbEntity
  8
0
  6
Continuous
 62
     7
100
AcDbLine
 10
5985.7993281978
 20
4497.1894405797
 30
0.0
 11
5985.6636084216
 21
4497.2190044835
 31
0.0
  0
LINE
  5
2D7
330
1F
100
AcDbEntity
  8
0
  6
Continuous
 62
     7
100
AcDbLine
 10
5985.6636084216
 20
4497.2190044835
 30
0.0
 11
5985.512778868
 21
4497.2299717381
 31
0.0
  0
LINE
  5
2D8
330
1F
100
AcDbEntity
  8
0
  6
Continuous
 62
     7
100
AcDbLine
 10
5985.512778868
 20
4497.2299717381
 30
0.0
 11
5985.3610254424
 21
4497.2215078786
 31
0.0
  0
LINE
  5
2D9
330
1F
100
AcDbEntity
  8
0
  6
Continuous
 62
     7
100
AcDbLine
 10
5985.3610254424
 20
4497.2215078786
 30
0.0
 11
5985.2225340503
 21
4497.1943281605
 31
0.0
  0
LINE
  5
2DA
330
1F
100
AcDbEntity
  8
0
  6
Continuous
 62
     7
100
AcDbLine
 10
6573.2687553361
 20
4350.0826316529
 30
0.0
 11
6573.2687553361
 21
4339.6903268075
 31
0.0
  0
LINE
  5
2DB
330
1F
100
AcDbEntity
  8
0
  6
Continuous
 62
     7
100
AcDbLine
 10
6574.7687553361
 20
4339.6903268075
 30
0.0
 11
6574.7687553361
 21
4350.0826316529
 31
0.0
  0
LINE
  5
2DC
330
1F
100
AcDbEntity
  8
0
  6
Continuous
 62
     7
100
AcDbLine
 10
5974.7687553361
 20
4339.6903268075
 30
0.0
 11
5974.7687553361
 21
4350.0826316529
 31
0.0
  0
LINE
  5
2DD
330
1F
100
AcDbEntity
  8
0
  6
Continuous
 62
     7
100
AcDbLine
 10
5973.2687553361
 20
4350.0826316529
 30
0.0
 11
5973.2687553361
 21
4339.6903268075
 31
0.0
  0
LINE
  5
2DE
330
1F
100
AcDbEntity
  8
0
  6
Continuous
 62
     7
100
AcDbLine
 10
5978.2649434703
 20
4496.5552471593
 30
0.0
 11
5978.8759208815
 21
4497.0105074361
 31
0.0
  0
LINE
  5
2DF
330
1F
100
AcDbEntity
  8
0
  6
Continuous
 62
     7
100
AcDbLine
 10
5978.8759208815
 20
4497.0105074361
 30
0.0
 11
5979.2246080535
 21
4497.5567244008
 31
0.0
  0
LINE
  5
2E0
330
1F
100
AcDbEntity
  8
0
  6
Continuous
 62
     7
100
AcDbLine
 10
5979.2246080535
 20
4497.5567244008
 30
0.0
 11
5979.2246080535
 21
4498.1217764332
 31
0.0
  0
LINE
  5
2E1
330
1F
100
AcDbEntity
  8
0
  6
Continuous
 62
     7
100
AcDbLine
 10
5979.2246080535
 20
4498.1217764332
 30
0.0
 11
5978.8759208815
 21
4498.6678741887
 31
0.0
  0
LINE
  5
2E2
330
1F
100
AcDbEntity
  8
0
  6
Continuous
 62
     7
100
AcDbLine
 10
5978.8759208815
 20
4498.6678741887
 30
0.0
 11
5978.2018817561
 21
4499.1585396245
 31
0.0
  0
LINE
  5
2E3
330
1F
100
AcDbEntity
  8
0
  6
Continuous
 62
     7
100
AcDbLine
 10
5978.2018817561
 20
4499.1585396245
 30
0.0
 11
5977.2476411956
 21
4499.5607517674
 31
0.0
  0
LINE
  5
2E4
330
1F
100
AcDbEntity
  8
0
  6
Continuous
 62
     7
100
AcDbLine
 10
5977.2476411956
 20
4499.5607517674
 30
0.0
 11
5976.0771251815
 21
4499.8476885274
 31
0.0
  0
LINE
  5
2E5
330
1F
100
AcDbEntity
  8
0
  6
Continuous
 62
     7
100
AcDbLine
 10
5976.0771251815
 20
4499.8476885274
 30
0.0
 11
5974.768743624
 21
4500.0001572087
 31
0.0
  0
LINE
  5
2E6
330
1F
100
AcDbEntity
  8
0
  6
Continuous
 62
     7
100
AcDbLine
 10
5974.768743624
 20
4495.4597137883
 30
0.0
 11
5974.768743624
 21
4500.0001572087
 31
0.0
  0
LINE
  5
2E7
330
1F
100
AcDbEntity
  8
0
  6
Continuous
 62
     7
100
AcDbLine
 10
5973.2687629359
 20
4500.0001572087
 30
0.0
 11
5971.9603813785
 21
4499.8476885274
 31
0.0
  0
LINE
  5
2E8
330
1F
100
AcDbEntity
  8
0
  6
Continuous
 62
     7
100
AcDbLine
 10
5971.9603813785
 20
4499.8476885274
 30
0.0
 11
5970.7898653644
 21
4499.5607517674
 31
0.0
  0
LINE
  5
2E9
330
1F
100
AcDbEntity
  8
0
  6
Continuous
 62
     7
100
AcDbLine
 10
5970.7898653644
 20
4499.5607517674
 30
0.0
 11
5969.8356248038
 21
4499.1585396245
 31
0.0
  0
LINE
  5
2EA
330
1F
100
AcDbEntity
  8
0
  6
Continuous
 62
     7
100
AcDbLine
 10
5969.8356248038
 20
4499.1585396245
 30
0.0
 11
5969.1615856784
 21
4498.6678741887
 31
0.0
  0
LINE
  5
2EB
330
1F
100
AcDbEntity
  8
0
  6
Continuous
 62
     7
100
AcDbLine
 10
5969.1615856784
 20
4498.6678741887
 30
0.0
 11
5968.8128985064
 21
4498.1217764332
 31
0.0
  0
LINE
  5
2EC
330
1F
100
AcDbEntity
  8
0
  6
Continuous
 62
     7
100
AcDbLine
 10
5968.8128985064
 20
4498.1217764332
 30
0.0
 11
5968.8128985064
 21
4497.5567244008
 31
0.0
  0
LINE
  5
2ED
330
1F
100
AcDbEntity
  8
0
  6
Continuous
 62
     7
100
AcDbLine
 10
5968.8128985064
 20
4497.5567244008
 30
0.0
 11
5969.1615856784
 21
4497.0105074361
 31
0.0
  0
LINE
  5
2EE
330
1F
100
AcDbEntity
  8
0
  6
Continuous
 62
     7
100
AcDbLine
 10
5969.1615856784
 20
4497.0105074361
 30
0.0
 11
5969.7725630896
 21
4496.5552471593
 31
0.0
  0
LINE
  5
2EF
330
1F
100
AcDbEntity
  8
0
  6
Continuous
 62
     7
100
AcDbLine
 10
5973.2687629359
 20
4500.0001572087
 30
0.0
 11
5973.2687629359
 21
4495.4597137883
 31
0.0
  0
LINE
  5
2F0
330
1F
100
AcDbEntity
  8
0
  6
Continuous
 62
     7
100
AcDbLine
 10
5979.2687452929
 20
4498.4758280232
 30
0.0
 11
5979.089871754
 21
4499.0408800557
 31
0.0
  0
LINE
  5
2F1
330
1F
100
AcDbEntity
  8
0
  6
Continuous
 62
     7
100
AcDbLine
 10
5979.089871754
 20
4499.0408800557
 30
0.0
 11
5978.5653806823
 21
4499.5674274876
 31
0.0
  0
LINE
  5
2F2
330
1F
100
AcDbEntity
  8
0
  6
Continuous
 62
     7
100
AcDbLine
 10
5978.5653806823
 20
4499.5674274876
 30
0.0
 11
5977.731064667
 21
4500.0195883229
 31
0.0
  0
LINE
  5
2F3
330
1F
100
AcDbEntity
  8
0
  6
Continuous
 62
     7
100
AcDbLine
 10
5977.731064667
 20
4500.0195883229
 30
0.0
 11
5976.643756737
 21
4500.3666065648
 31
0.0
  0
LINE
  5
2F4
330
1F
100
AcDbEntity
  8
0
  6
Continuous
 62
     7
100
AcDbLine
 10
5976.643756737
 20
4500.3666065648
 30
0.0
 11
5975.3775454657
 21
4500.5847595647
 31
0.0
  0
LINE
  5
2F5
330
1F
100
AcDbEntity
  8
0
  6
Continuous
 62
     7
100
AcDbLine
 10
5975.3775454657
 20
4500.5847595647
 30
0.0
 11
5974.0187681811
 21
4500.6591461613
 31
0.0
  0
LINE
  5
2F6
330
1F
100
AcDbEntity
  8
0
  6
Continuous
 62
     7
100
AcDbLine
 10
5974.0187681811
 20
4500.6591461613
 30
0.0
 11
5972.6599610942
 21
4500.5847595647
 31
0.0
  0
LINE
  5
2F7
330
1F
100
AcDbEntity
  8
0
  6
Continuous
 62
     7
100
AcDbLine
 10
5972.6599610942
 20
4500.5847595647
 30
0.0
 11
5971.3937498229
 21
4500.3666065648
 31
0.0
  0
LINE
  5
2F8
330
1F
100
AcDbEntity
  8
0
  6
Continuous
 62
     7
100
AcDbLine
 10
5971.3937498229
 20
4500.3666065648
 30
0.0
 11
5970.3064418929
 21
4500.0195883229
 31
0.0
  0
LINE
  5
2F9
330
1F
100
AcDbEntity
  8
0
  6
Continuous
 62
     7
100
AcDbLine
 10
5970.3064418929
 20
4500.0195883229
 30
0.0
 11
5969.4721258777
 21
4499.5674274876
 31
0.0
  0
LINE
  5
2FA
330
1F
100
AcDbEntity
  8
0
  6
Continuous
 62
     7
100
AcDbLine
 10
5969.4721258777
 20
4499.5674274876
 30
0.0
 11
5968.947634806
 21
4499.0408800557
 31
0.0
  0
LINE
  5
2FB
330
1F
100
AcDbEntity
  8
0
  6
Continuous
 62
     7
100
AcDbLine
 10
5968.947634806
 20
4499.0408800557
 30
0.0
 11
5968.768761267
 21
4498.4758280232
 31
0.0
  0
LINE
  5
2FC
330
1F
100
AcDbEntity
  8
0
  6
Continuous
 62
     7
100
AcDbLine
 10
6578.2649375098
 20
4496.5552471593
 30
0.0
 11
6578.8759149211
 21
4497.0105074361
 31
0.0
  0
LINE
  5
2FD
330
1F
100
AcDbEntity
  8
0
  6
Continuous
 62
     7
100
AcDbLine
 10
6578.8759149211
 20
4497.0105074361
 30
0.0
 11
6579.2246169942
 21
4497.5567244008
 31
0.0
  0
LINE
  5
2FE
330
1F
100
AcDbEntity
  8
0
  6
Continuous
 62
     7
100
AcDbLine
 10
6579.2246169942
 20
4497.5567244008
 30
0.0
 11
6579.2246169942
 21
4498.1217764332
 31
0.0
  0
LINE
  5
2FF
330
1F
100
AcDbEntity
  8
0
  6
Continuous
 62
     7
100
AcDbLine
 10
6579.2246169942
 20
4498.1217764332
 30
0.0
 11
6578.8759149211
 21
4498.6678741887
 31
0.0
  0
LINE
  5
300
330
1F
100
AcDbEntity
  8
0
  6
Continuous
 62
     7
100
AcDbLine
 10
6578.8759149211
 20
4498.6678741887
 30
0.0
 11
6578.2018757956
 21
4499.1585396245
 31
0.0
  0
LINE
  5
301
330
1F
100
AcDbEntity
  8
0
  6
Continuous
 62
     7
100
AcDbLine
 10
6578.2018757956
 20
4499.1585396245
 30
0.0
 11
6577.2476501363
 21
4499.5607517674
 31
0.0
  0
LINE
  5
302
330
1F
100
AcDbEntity
  8
0
  6
Continuous
 62
     7
100
AcDbLine
 10
6577.2476501363
 20
4499.5607517674
 30
0.0
 11
6576.0771341222
 21
4499.8476885274
 31
0.0
  0
LINE
  5
303
330
1F
100
AcDbEntity
  8
0
  6
Continuous
 62
     7
100
AcDbLine
 10
6576.0771341222
 20
4499.8476885274
 30
0.0
 11
6574.7687525647
 21
4500.0001572087
 31
0.0
  0
LINE
  5
304
330
1F
100
AcDbEntity
  8
0
  6
Continuous
 62
     7
100
AcDbLine
 10
6574.7687525647
 20
4495.4597137883
 30
0.0
 11
6574.7687525647
 21
4500.0001572087
 31
0.0
  0
LINE
  5
305
330
1F
100
AcDbEntity
  8
0
  6
Continuous
 62
     7
100
AcDbLine
 10
6573.2687569755
 20
4500.0001572087
 30
0.0
 11
6571.960375418
 21
4499.8476885274
 31
0.0
  0
LINE
  5
306
330
1F
100
AcDbEntity
  8
0
  6
Continuous
 62
     7
100
AcDbLine
 10
6571.960375418
 20
4499.8476885274
 30
0.0
 11
6570.7898594039
 21
4499.5607517674
 31
0.0
  0
LINE
  5
307
330
1F
100
AcDbEntity
  8
0
  6
Continuous
 62
     7
100
AcDbLine
 10
6570.7898594039
 20
4499.5607517674
 30
0.0
 11
6569.8356337445
 21
4499.1585396245
 31
0.0
  0
LINE
  5
308
330
1F
100
AcDbEntity
  8
0
  6
Continuous
 62
     7
100
AcDbLine
 10
6569.8356337445
 20
4499.1585396245
 30
0.0
 11
6569.1615946191
 21
4498.6678741887
 31
0.0
  0
LINE
  5
309
330
1F
100
AcDbEntity
  8
0
  6
Continuous
 62
     7
100
AcDbLine
 10
6569.1615946191
 20
4498.6678741887
 30
0.0
 11
6568.812892546
 21
4498.1217764332
 31
0.0
  0
LINE
  5
30A
330
1F
100
AcDbEntity
  8
0
  6
Continuous
 62
     7
100
AcDbLine
 10
6568.812892546
 20
4498.1217764332
 30
0.0
 11
6568.812892546
 21
4497.5567244008
 31
0.0
  0
LINE
  5
30B
330
1F
100
AcDbEntity
  8
0
  6
Continuous
 62
     7
100
AcDbLine
 10
6568.812892546
 20
4497.5567244008
 30
0.0
 11
6569.1615946191
 21
4497.0105074361
 31
0.0
  0
LINE
  5
30C
330
1F
100
AcDbEntity
  8
0
  6
Continuous
 62
     7
100
AcDbLine
 10
6569.1615946191
 20
4497.0105074361
 30
0.0
 11
6569.7725720303
 21
4496.5552471593
 31
0.0
  0
LINE
  5
30D
330
1F
100
AcDbEntity
  8
0
  6
Continuous
 62
     7
100
AcDbLine
 10
6573.2687569755
 20
4500.0001572087
 30
0.0
 11
6573.2687569755
 21
4495.4597137883
 31
0.0
  0
LINE
  5
30E
330
1F
100
AcDbEntity
  8
0
  6
Continuous
 62
     7
100
AcDbLine
 10
6579.2687542336
 20
4498.4758280232
 30
0.0
 11
6579.0898657935
 21
4499.0408800557
 31
0.0
  0
LINE
  5
30F
330
1F
100
AcDbEntity
  8
0
  6
Continuous
 62
     7
100
AcDbLine
 10
6579.0898657935
 20
4499.0408800557
 30
0.0
 11
6578.565389623
 21
4499.5674274876
 31
0.0
  0
LINE
  5
310
330
1F
100
AcDbEntity
  8
0
  6
Continuous
 62
     7
100
AcDbLine
 10
6578.565389623
 20
4499.5674274876
 30
0.0
 11
6577.7310587066
 21
4500.0195883229
 31
0.0
  0
LINE
  5
311
330
1F
100
AcDbEntity
  8
0
  6
Continuous
 62
     7
100
AcDbLine
 10
6577.7310587066
 20
4500.0195883229
 30
0.0
 11
6576.6437507766
 21
4500.3666065648
 31
0.0
  0
LINE
  5
312
330
1F
100
AcDbEntity
  8
0
  6
Continuous
 62
     7
100
AcDbLine
 10
6576.6437507766
 20
4500.3666065648
 30
0.0
 11
6575.3775544064
 21
4500.5847595647
 31
0.0
  0
LINE
  5
313
330
1F
100
AcDbEntity
  8
0
  6
Continuous
 62
     7
100
AcDbLine
 10
6575.3775544064
 20
4500.5847595647
 30
0.0
 11
6574.0187622207
 21
4500.6591461613
 31
0.0
  0
LINE
  5
314
330
1F
100
AcDbEntity
  8
0
  6
Continuous
 62
     7
100
AcDbLine
 10
6574.0187622207
 20
4500.6591461613
 30
0.0
 11
6572.6599551337
 21
4500.5847595647
 31
0.0
  0
LINE
  5
315
330
1F
100
AcDbEntity
  8
0
  6
Continuous
 62
     7
100
AcDbLine
 10
6572.6599551337
 20
4500.5847595647
 30
0.0
 11
6571.3937587636
 21
4500.3666065648
 31
0.0
  0
LINE
  5
316
330
1F
100
AcDbEntity
  8
0
  6
Continuous
 62
     7
100
AcDbLine
 10
6571.3937587636
 20
4500.3666065648
 30
0.0
 11
6570.3064508336
 21
4500.0195883229
 31
0.0
  0
LINE
  5
317
330
1F
100
AcDbEntity
  8
0
  6
Continuous
 62
     7
100
AcDbLine
 10
6570.3064508336
 20
4500.0195883229
 30
0.0
 11
6569.4721199172
 21
4499.5674274876
 31
0.0
  0
LINE
  5
318
330
1F
100
AcDbEntity
  8
0
  6
Continuous
 62
     7
100
AcDbLine
 10
6569.4721199172
 20
4499.5674274876
 30
0.0
 11
6568.9476437467
 21
4499.0408800557
 31
0.0
  0
LINE
  5
319
330
1F
100
AcDbEntity
  8
0
  6
Continuous
 62
     7
100
AcDbLine
 10
6568.9476437467
 20
4499.0408800557
 30
0.0
 11
6568.7687553065
 21
4498.4758280232
 31
0.0
  0
LINE
  5
31A
330
1F
100
AcDbEntity
  8
0
  6
Continuous
 62
     7
100
AcDbLine
 10
6614.018753876
 20
4624.9810241177
 30
0.0
 11
6534.0187556641
 21
4624.9810241177
 31
0.0
  0
LINE
  5
31B
330
1F
100
AcDbEntity
  8
0
  6
Continuous
 62
     7
100
AcDbLine
 10
6594.0187580483
 20
4634.9810741856
 30
0.0
 11
6554.0187514918
 21
4634.9810741856
 31
0.0
  0
LINE
  5
31C
330
1F
100
AcDbEntity
  8
0
  6
Continuous
 62
     7
100
AcDbLine
 10
6014.0187598365
 20
4624.9810241177
 30
0.0
 11
5934.0187467235
 21
4624.9810241177
 31
0.0
  0
LINE
  5
31D
330
1F
100
AcDbEntity
  8
0
  6
Continuous
 62
     7
100
AcDbLine
 10
5994.0187491076
 20
4634.9810741856
 30
0.0
 11
5954.0187574523
 21
4634.9810741856
 31
0.0
  0
LINE
  5
31E
330
1F
100
AcDbEntity
  8
0
  6
Continuous
 62
     7
100
AcDbLine
 10
6562.8149814504
 20
4500.7751368001
 30
0.0
 11
6562.8149814504
 21
4499.7455261662
 31
0.0
  0
LINE
  5
31F
330
1F
100
AcDbEntity
  8
0
  6
Continuous
 62
     7
100
AcDbLine
 10
6585.2225280898
 20
4500.7751368001
 30
0.0
 11
6585.2225280898
 21
4499.7455261662
 31
0.0
  0
LINE
  5
320
330
1F
100
AcDbEntity
  8
0
  6
Continuous
 62
     7
100
AcDbLine
 10
6562.0563931363
 20
4497.0823906377
 30
0.0
 11
6562.0563931363
 21
4496.9617508366
 31
0.0
  0
LINE
  5
321
330
1F
100
AcDbEntity
  8
0
  6
Continuous
 62
     7
100
AcDbLine
 10
6585.9811164039
 20
4497.0823906377
 30
0.0
 11
6585.9811164039
 21
4496.9617508366
 31
0.0
  0
LINE
  5
322
330
1F
100
AcDbEntity
  8
0
  6
Continuous
 62
     7
100
AcDbLine
 10
5962.8149725097
 20
4500.7751368001
 30
0.0
 11
5962.8149725097
 21
4499.7455261662
 31
0.0
  0
LINE
  5
323
330
1F
100
AcDbEntity
  8
0
  6
Continuous
 62
     7
100
AcDbLine
 10
5985.2225340503
 20
4500.7751368001
 30
0.0
 11
5985.2225340503
 21
4499.7455261662
 31
0.0
  0
LINE
  5
324
330
1F
100
AcDbEntity
  8
0
  6
Continuous
 62
     7
100
AcDbLine
 10
5962.0563841956
 20
4497.0823906377
 30
0.0
 11
5962.0563841956
 21
4496.9617508366
 31
0.0
  0
LINE
  5
325
330
1F
100
AcDbEntity
  8
0
  6
Continuous
 62
     7
100
AcDbLine
 10
5985.9811223643
 20
4497.0823906377
 30
0.0
 11
5985.9811223643
 21
4496.9617508366
 31
0.0
  0
LWPOLYLINE
  5
326
330
1F
100
AcDbEntity
  8
0
  6
Continuous
 62
     7
100
AcDbPolyline
 90
       12
 70
   128
 43
0.0
 10
7515.8653259277
 20
5142.0033460195
 10
7519.5097120355
 20
5116.783644174
 10
7509.9877462158
 20
5101.9567995172
 10
7509.000397057
 20
5100.7119813192
 10
7508.9616371981
 20
5100.6635780863
 10
7508.9590758045
 20
5100.6603863256
 10
7508.9589260131
 20
5100.6602010267
 10
7508.9589207041
 20
5100.6601949776
 10
7508.9590166565
 20
5100.6603163282
 10
7508.9592741989
 20
5100.6606394255
 10
7508.9642811131
 20
5100.6668991035
 10
7508.9835303923
 20
5100.6909429739
  0
LWPOLYLINE
  5
327
330
1F
100
AcDbEntity
  8
0
  6
Continuous
 62
     7
100
AcDbPolyline
 90
        3
 70
   128
 43
0.0
 10
7514.087677002
 20
5144.6557033519
 10
7514.6818558674
 20
5143.7965449277
 10
7515.8667939803
 20
5142.0033460195
  0
LINE
  5
328
330
1F
100
AcDbEntity
  8
0
  6
Continuous
 62
     7
100
AcDbLine
 10
7514.087677002
 20
5144.6557033519
 30
0.0
 11
7518.6188596389
 21
5144.6557033519
 31
0.0
  0
LWPOLYLINE
  5
329
330
1F
100
AcDbEntity
  8
0
  6
Continuous
 62
     7
100
AcDbPolyline
 90
        3
 70
   128
 43
0.0
 10
7513.599395752
 20
5224.8467735658
 10
7514.0730379805
 20
5224.5227930886
 10
7515.045322766
 20
5223.8557047854
  0
LWPOLYLINE
  5
32A
330
1F
100
AcDbEntity
  8
0
  6
Continuous
 62
     7
100
AcDbPolyline
 90
       10
 70
   128
 43
0.0
 10
7517.0860290527
 20
5206.8784765611
 10
7514.8217468062
 20
5200.3577059818
 10
7514.6056070675
 20
5199.8918158943
 10
7514.6034745723
 20
5199.8872742777
 10
7514.6032203534
 20
5199.8867275921
 10
7514.6032094187
 20
5199.8867031691
 10
7514.6032070997
 20
5199.8866976371
 10
7514.6032068406
 20
5199.8866964753
 10
7514.6032390389
 20
5199.8867615205
 10
7514.6065133712
 20
5199.8936690102
  0
LWPOLYLINE
  5
32B
330
1F
100
AcDbEntity
  8
0
  6
Continuous
 62
     7
100
AcDbPolyline
 90
        3
 70
   128
 43
0.0
 10
7515.0451660156
 20
5223.8557047854
 10
7516.1641942991
 20
5221.042988692
 10
7517.0885699889
 20
5217.8329311023
  0
LWPOLYLINE
  5
32C
330
1F
100
AcDbEntity
  8
0
  6
Continuous
 62
     7
100
AcDbPolyline
 90
        3
 70
   128
 43
0.0
 10
5961.6737365723
 20
4505.2700422719
 10
5962.6400864009
 20
4505.6621680221
 10
5963.5187543528
 20
4505.9518001988
  0
LWPOLYLINE
  5
32D
330
1F
100
AcDbEntity
  8
0
  6
Continuous
 62
     7
100
AcDbPolyline
 90
        3
 70
   128
 43
0.0
 10
6561.6760253906
 20
4505.2700422719
 10
6562.6864419003
 20
4505.6794201688
 10
6563.6060393947
 20
4505.9819601491
  0
LWPOLYLINE
  5
32E
330
1F
100
AcDbEntity
  8
0
  6
Continuous
 62
     7
100
AcDbPolyline
 90
        4
 70
   128
 43
0.0
 10
6556.0493469238
 20
4499.7630499318
 10
6557.6537061998
 20
4496.2081091249
 10
6561.6511731097
 20
4493.649263991
 10
6574.0187622207
 20
4491.4722822621
  0
LWPOLYLINE
  5
32F
330
1F
100
AcDbEntity
  8
0
  6
Continuous
 62
     7
100
AcDbPolyline
 90
        4
 70
   128
 43
0.0
 10
6574.0165710449
 20
4491.4722822621
 10
6586.5030475913
 20
4493.6992351086
 10
6590.4876129275
 20
4496.3170811268
 10
6591.9766433137
 20
4499.945916982
  0
LWPOLYLINE
  5
330
330
1F
100
AcDbEntity
  8
0
  6
Continuous
 62
     7
100
AcDbPolyline
 90
        4
 70
   128
 43
0.0
 10
5956.0508728027
 20
4499.7630499318
 10
5957.6537031695
 20
4496.2081078542
 10
5961.6511743465
 20
4493.6492641308
 10
5974.0187681811
 20
4491.4722822621
  0
LWPOLYLINE
  5
331
330
1F
100
AcDbEntity
  8
0
  6
Continuous
 62
     7
100
AcDbPolyline
 90
        4
 70
   128
 43
0.0
 10
5974.0180969238
 20
4491.4722822621
 10
5986.5030531777
 20
4493.6992352739
 10
5990.4876076451
 20
4496.3170840011
 10
5991.976634373
 20
4499.945916982
  0
LWPOLYLINE
  5
332
330
1F
100
AcDbEntity
  8
0
  6
Continuous
 62
     7
100
AcDbPolyline
 90
        8
 70
   128
 43
0.0
 10
5991.7602539062
 20
4498.3905933812
 10
5992.1763690613
 20
4500.0402252112
 10
5991.6013884718
 20
4501.7019917011
 10
5984.9169793704
 20
4505.8528318482
 10
5973.6290472898
 20
4507.3926255135
 10
5962.502724179
 20
4505.6485715876
 10
5956.2541938248
 20
4501.3830687649
 10
5956.4099765914
 20
4498.0721853688
  0
LWPOLYLINE
  5
333
330
1F
100
AcDbEntity
  8
0
  6
Continuous
 62
     7
100
AcDbPolyline
 90
        8
 70
   128
 43
0.0
 10
6591.7625427246
 20
4498.3905933812
 10
6592.1763622783
 20
4500.040227728
 10
6591.601395969
 20
4501.7019950142
 10
6584.9169769085
 20
4505.8528322427
 10
6573.6290450298
 20
4507.3926252308
 10
6562.5027243568
 20
4505.6485714736
 10
6556.2541865122
 20
4501.3830690416
 10
6556.4099706309
 20
4498.0721853688
  0
ENDSEC
  0
SECTION
  2
OBJECTS
  0
DICTIONARY
  5
C
330
0
100
AcDbDictionary
281
     1
  3
ACAD_GROUP
350
D
  3
ACAD_LAYOUT
350
1A
  3
ACAD_MLINESTYLE
350
17
  3
ACAD_PLOTSETTINGS
350
19
  3
ACAD_PLOTSTYLENAME
350
E
  3
ACAD_SCALELIST
350
47
  3
DWGPROPS
350
334
  0
DICTIONARY
  5
D
102
{ACAD_REACTORS
330
C
102
}
330
C
100
AcDbDictionary
281
     1
  0
DICTIONARY
  5
1A
102
{ACAD_REACTORS
330
C
102
}
330
C
100
AcDbDictionary
281
     1
  3
Layout1
350
1E
  3
Layout2
350
26
  3
Model
350
22
  0
DICTIONARY
  5
17
102
{ACAD_REACTORS
330
C
102
}
330
C
100
AcDbDictionary
281
     1
  3
Standard
350
18
  0
DICTIONARY
  5
19
102
{ACAD_REACTORS
330
C
102
}
330
C
100
AcDbDictionary
281
     1
  0
ACDBDICTIONARYWDFLT
  5
E
102
{ACAD_REACTORS
330
C
102
}
330
C
100
AcDbDictionary
281
     1
  3
Normal
350
F
100
AcDbDictionaryWithDefault
340
F
  0
DICTIONARY
  5
47
102
{ACAD_REACTORS
330
C
102
}
330
C
100
AcDbDictionary
281
     1
  3
A0
350
48
  3
A1
350
49
  3
A2
350
4A
  3
A3
350
4B
  3
A4
350
4C
  3
A5
350
4D
  3
A6
350
4E
  3
A7
350
4F
  3
A8
350
50
  3
A9
350
51
  3
B0
350
52
  3
B1
350
53
  3
B2
350
54
  3
B3
350
55
  3
B4
350
56
  3
B5
350
57
  3
B6
350
58
  3
B7
350
59
  3
B8
350
5A
  3
B9
350
5B
  3
C0
350
5C
  3
C1
350
5D
  3
C2
350
5E
  3
C3
350
5F
  3
C4
350
60
  3
C5
350
61
  3
C6
350
62
  3
C7
350
63
  3
C8
350
64
  3
C9
350
65
  3
D0
350
66
  3
D1
350
67
  3
D2
350
68
  0
XRECORD
  5
334
102
{ACAD_REACTORS
330
C
102
}
330
C
100
AcDbXrecord
280
     1
  1
DWGPROPS COOKIE
  2

  3

  4

  6

  7

  8
radek.stransky
  9

300
=
301
=
302
=
303
=
304
=
305
=
306
=
307
=
308
=
309
=
 40
0.0
 41
2459096.326370104
 42
2459096.326400313
  1

 90
        0
  0
LAYOUT
  5
1E
102
{ACAD_REACTORS
330
1A
102
}
330
1A
100
AcDbPlotSettings
  1

  2
none_device
  4

  6

 40
0.0
 41
0.0
 42
0.0
 43
0.0
 44
0.0
 45
0.0
 46
0.0
 47
0.0
 48
0.0
 49
0.0
140
0.0
141
0.0
142
1.0
143
1.0
 70
   688
 72
     1
 73
     0
 74
     5
  7

 75
    16
147
1.0
148
0.0
149
0.0
100
AcDbLayout
  1
Layout1
 70
     1
 71
     1
 10
0.0
 20
0.0
 11
420.0
 21
297.0
 12
0.0
 22
0.0
 32
0.0
 14
1.0000000000E+20
 24
1.0000000000E+20
 34
1.0000000000E+20
 15
-1.0000000000E+20
 25
-1.0000000000E+20
 35
-1.0000000000E+20
146
0.0
 13
0.0
 23
0.0
 33
0.0
 16
1.0
 26
0.0
 36
0.0
 17
0.0
 27
1.0
 37
0.0
 76
     0
330
1B
  0
LAYOUT
  5
26
102
{ACAD_REACTORS
330
1A
102
}
330
1A
100
AcDbPlotSettings
  1

  2
none_device
  4

  6

 40
0.0
 41
0.0
 42
0.0
 43
0.0
 44
0.0
 45
0.0
 46
0.0
 47
0.0
 48
0.0
 49
0.0
140
0.0
141
0.0
142
1.0
143
1.0
 70
   688
 72
     1
 73
     0
 74
     5
  7

 75
    16
147
1.0
148
0.0
149
0.0
100
AcDbLayout
  1
Layout2
 70
     1
 71
     2
 10
0.0
 20
0.0
 11
0.0
 21
0.0
 12
0.0
 22
0.0
 32
0.0
 14
0.0
 24
0.0
 34
0.0
 15
0.0
 25
0.0
 35
0.0
146
0.0
 13
0.0
 23
0.0
 33
0.0
 16
1.0
 26
0.0
 36
0.0
 17
0.0
 27
1.0
 37
0.0
 76
     0
330
23
  0
LAYOUT
  5
22
102
{ACAD_REACTORS
330
1A
102
}
330
1A
100
AcDbPlotSettings
  1

  2
none_device
  4
ANSI_A_(11.00_x_8.50_Inches)
  6

 40
6.35
 41
19.05
 42
6.35000508
 43
19.05000254
 44
279.4
 45
215.9
 46
-756.9487253135
 47
-543.1261713478
 48
0.0
 49
0.0
140
0.0
141
0.0
142
0.0052178416
143
1.0
 70
  1696
 72
     0
 73
     0
 74
     0
  7

 75
     0
147
0.0179189148
148
-1300.4909072572
149
0.0
100
AcDbLayout
  1
Model
 70
     1
 71
     0
 10
0.0
 20
0.0
 11
420.0
 21
297.0
 12
0.0
 22
0.0
 32
0.0
 14
5674.0187553361
 24
4124.8864315465
 34
0.0
 15
7761.0886472365
 25
5412.7431966076
 35
0.0
146
0.0
 13
0.0
 23
0.0
 33
0.0
 16
1.0
 26
0.0
 36
0.0
 17
0.0
 27
1.0
 37
0.0
 76
     0
330
1F
331
29
  0
MLINESTYLE
  5
18
102
{ACAD_REACTORS
330
17
102
}
330
17
100
AcDbMlineStyle
  2
Standard
 70
     0
  3

 62
   256
 51
90.0
 52
90.0
 71
     2
 49
0.5
 62
   256
  6
BYLAYER
 49
-0.5
 62
   256
  6
BYLAYER
  0
ACDBPLACEHOLDER
  5
F
102
{ACAD_REACTORS
330
E
102
}
330
E
  0
SCALE
  5
48
102
{ACAD_REACTORS
330
47
102
}
330
47
100
AcDbScale
 70
     0
300
1:1
140
1.0
141
1.0
290
     1
  0
SCALE
  5
49
102
{ACAD_REACTORS
330
47
102
}
330
47
100
AcDbScale
 70
     0
300
1:2
140
1.0
141
2.0
290
     0
  0
SCALE
  5
4A
102
{ACAD_REACTORS
330
47
102
}
330
47
100
AcDbScale
 70
     0
300
1:4
140
1.0
141
4.0
290
     0
  0
SCALE
  5
4B
102
{ACAD_REACTORS
330
47
102
}
330
47
100
AcDbScale
 70
     0
300
1:5
140
1.0
141
5.0
290
     0
  0
SCALE
  5
4C
102
{ACAD_REACTORS
330
47
102
}
330
47
100
AcDbScale
 70
     0
300
1:8
140
1.0
141
8.0
290
     0
  0
SCALE
  5
4D
102
{ACAD_REACTORS
330
47
102
}
330
47
100
AcDbScale
 70
     0
300
1:10
140
1.0
141
10.0
290
     0
  0
SCALE
  5
4E
102
{ACAD_REACTORS
330
47
102
}
330
47
100
AcDbScale
 70
     0
300
1:16
140
1.0
141
16.0
290
     0
  0
SCALE
  5
4F
102
{ACAD_REACTORS
330
47
102
}
330
47
100
AcDbScale
 70
     0
300
1:20
140
1.0
141
20.0
290
     0
  0
SCALE
  5
50
102
{ACAD_REACTORS
330
47
102
}
330
47
100
AcDbScale
 70
     0
300
1:30
140
1.0
141
30.0
290
     0
  0
SCALE
  5
51
102
{ACAD_REACTORS
330
47
102
}
330
47
100
AcDbScale
 70
     0
300
1:40
140
1.0
141
40.0
290
     0
  0
SCALE
  5
52
102
{ACAD_REACTORS
330
47
102
}
330
47
100
AcDbScale
 70
     0
300
1:50
140
1.0
141
50.0
290
     0
  0
SCALE
  5
53
102
{ACAD_REACTORS
330
47
102
}
330
47
100
AcDbScale
 70
     0
300
1:100
140
1.0
141
100.0
290
     0
  0
SCALE
  5
54
102
{ACAD_REACTORS
330
47
102
}
330
47
100
AcDbScale
 70
     0
300
2:1
140
2.0
141
1.0
290
     0
  0
SCALE
  5
55
102
{ACAD_REACTORS
330
47
102
}
330
47
100
AcDbScale
 70
     0
300
4:1
140
4.0
141
1.0
290
     0
  0
SCALE
  5
56
102
{ACAD_REACTORS
330
47
102
}
330
47
100
AcDbScale
 70
     0
300
8:1
140
8.0
141
1.0
290
     0
  0
SCALE
  5
57
102
{ACAD_REACTORS
330
47
102
}
330
47
100
AcDbScale
 70
     0
300
10:1
140
10.0
141
1.0
290
     0
  0
SCALE
  5
58
102
{ACAD_REACTORS
330
47
102
}
330
47
100
AcDbScale
 70
     0
300
100:1
140
100.0
141
1.0
290
     0
  0
SCALE
  5
59
102
{ACAD_REACTORS
330
47
102
}
330
47
100
AcDbScale
 70
     0
300
1/128" = 1'-0"
140
0.0078125
141
12.0
290
     0
  0
SCALE
  5
5A
102
{ACAD_REACTORS
330
47
102
}
330
47
100
AcDbScale
 70
     0
300
1/64" = 1'-0"
140
0.015625
141
12.0
290
     0
  0
SCALE
  5
5B
102
{ACAD_REACTORS
330
47
102
}
330
47
100
AcDbScale
 70
     0
300
1/32" = 1'-0"
140
0.03125
141
12.0
290
     0
  0
SCALE
  5
5C
102
{ACAD_REACTORS
330
47
102
}
330
47
100
AcDbScale
 70
     0
300
1/16" = 1'-0"
140
0.0625
141
12.0
290
     0
  0
SCALE
  5
5D
102
{ACAD_REACTORS
330
47
102
}
330
47
100
AcDbScale
 70
     0
300
3/32" = 1'-0"
140
0.09375
141
12.0
290
     0
  0
SCALE
  5
5E
102
{ACAD_REACTORS
330
47
102
}
330
47
100
AcDbScale
 70
     0
300
1/8" = 1'-0"
140
0.125
141
12.0
290
     0
  0
SCALE
  5
5F
102
{ACAD_REACTORS
330
47
102
}
330
47
100
AcDbScale
 70
     0
300
3/16" = 1'-0"
140
0.1875
141
12.0
290
     0
  0
SCALE
  5
60
102
{ACAD_REACTORS
330
47
102
}
330
47
100
AcDbScale
 70
     0
300
1/4" = 1'-0"
140
0.25
141
12.0
290
     0
  0
SCALE
  5
61
102
{ACAD_REACTORS
330
47
102
}
330
47
100
AcDbScale
 70
     0
300
3/8" = 1'-0"
140
0.375
141
12.0
290
     0
  0
SCALE
  5
62
102
{ACAD_REACTORS
330
47
102
}
330
47
100
AcDbScale
 70
     0
300
1/2" = 1'-0"
140
0.5
141
12.0
290
     0
  0
SCALE
  5
63
102
{ACAD_REACTORS
330
47
102
}
330
47
100
AcDbScale
 70
     0
300
3/4" = 1'-0"
140
0.75
141
12.0
290
     0
  0
SCALE
  5
64
102
{ACAD_REACTORS
330
47
102
}
330
47
100
AcDbScale
 70
     0
300
1" = 1'-0"
140
1.0
141
12.0
290
     0
  0
SCALE
  5
65
102
{ACAD_REACTORS
330
47
102
}
330
47
100
AcDbScale
 70
     0
300
1-1/2" = 1'-0"
140
1.5
141
12.0
290
     0
  0
SCALE
  5
66
102
{ACAD_REACTORS
330
47
102
}
330
47
100
AcDbScale
 70
     0
300
3" = 1'-0"
140
3.0
141
12.0
290
     0
  0
SCALE
  5
67
102
{ACAD_REACTORS
330
47
102
}
330
47
100
AcDbScale
 70
     0
300
6" = 1'-0"
140
6.0
141
12.0
290
     0
  0
SCALE
  5
68
102
{ACAD_REACTORS
330
47
102
}
330
47
100
AcDbScale
 70
     0
300
1'-0" = 1'-0"
140
12.0
141
12.0
290
     0
  0
ENDSEC
  0
EOF
